Song name
# A B C D E F G H I J K L M N O P Q R S T U V W X Y Z

Typecast - Kono Yakusoku tab

first tab! testing lang!
intro:

E-------------------------------------------------------------------------|
B--------------7--10---7------------7--12--7------------------------------|
G--------7--9------------9----7--9-----------9----------------------------| 2x
D-------------------------------------------------------------------------|
A-------------------------------------------------------------------------|
E-------------------------------------------------------------------------|

2nd intro:

E------------------------     E----------------------------------------------|
B-8--6-6--8-9-8-6--------     B-8/11--8-8-6-8-9-8-------------6-8-6-8-9-8----|
G--------8--------8------ 2x  G----------8--------7--9-9-----8-----8---------|2x
D-----------------8------     D----------------------------------------------|
A------------------------     A----------------------------------------------|
E------------------------     E----------------------------------------------|

verse:

----------------9--9------------------|
-----9-7---------10-10-----7-8-7-5-5~-|
-77-----9-6-7---------11----------7---|
-77-----------------------------------|
-55-----------------------------------|
--------------------------------------|

-----------------------------------------------------------------------|
-----------------------------------------------------------------------|
-3-5-3-1------3~------5~-----------------767643467/11h12---------------|
---------1-3-5---1-3-5---1-3-5-6-5-3-1~--------------------------------|
-----------------------------------------------------------------------|
-----------------------------------------------------------------------|

chorus! same lang ng 2nd intro

2nd verse:

---------------------------------------------------------------------|
----------------------------3-2--------------------------------------|
-77-------3-------5------3-----4-3----------4h5-43---3467/11h12-11---|
-77--1-3-5---1-3-5--1-3-5----------4h5-4----------535----------------|
-55-------------------------------------7-5--------------------------|
---------------------------------------------------------------------|

--------------------------- -------------------------------|
--------------------------- -------------------------------|
-4-6-7-6-7-9-14-11-9-11-7-- -4-6-7-6-7-9-14-11-9-11-14-----|
--------------------------- -------------------------------|
-2-4-5-4-5-7-12-9--7-9--5-- -2-4-5-4-5-7-12-9--7-9--12-----|
--------------------------- -------------------------------|

chorus:
after chorus

hindi ako masyadong sure sa my bandang huli nito! sensya :)

--------------8-9-8------------------------8-9-8-9-12-11-12-15-14-15-17-|
-98-98-98-98-9-9----6-8-9-6---98-98-98-98-9-9---------------------------|
-------------------8-------8--------------------------------------------|
------------------------------------------------------------------------|
------------------------------------------------------------------------|
------------------------------------------------------------------------|

palm mute lng dito

go on i will be waiting...

-------------------------------9h10-9--11-9----|
----8/11-88-6-8-9-8-----8/11-8-------10----10--|
-7---------8-------7-99------------------------|
-7---------------------------------------------|
-5---------------------------------------------|
-----------------------------------------------|
tapos balik first intro na!!
Tap to rate this tab
# A B C D E F G H I J K L M N O P Q R S T U V W X Y Z