Song name
# A B C D E F G H I J K L M N O P Q R S T U V W X Y Z

Typecast - Scars Of A Failing Heart tab

Title: Scars Of A Failing Heart
Artist: Typecast
Tabbed by: Levy Aleman
Tuning: EADGAa

INTRO:
a|-----------------0-------0--------0------0-----0-------0-----0-------|
A|-------------------0-------0--------0------0-----0-------0-----0-----|
G|--x-x-----7----7-----7/9-----9/11------4-----4-----4/5-----5---------|
D|--x-x---7---7--x-----x-x-----x---------x-----x-----x-x-----x---------|
A|--x-x-5--------5-----5/7-----7/9-------2-----2-----2/3-----3---------|
E|---------------------------------------------------------------------|

a|----0-----0-------0--------0------0-----0------------|
A|------0-----0-------0--------0------0-----0------p---|
G|--7-----7-----7/9-----9/11------4-----4-----4/5--a---|
D|--x-----x-----x-x-----x---------x-----x-----x-x--u---|
A|--5-----5-----5/7-----7/9-------2-----2-----2/3--s---|
E|-------------------------------------------------e---|

VERSE:
"broken hopes falling away..."
a|-------------------|
A|-------------------|
G|---7---7---7---7---|
D|---7---7---7---7---|
A|---5---4---5---x---|
E|-----------7---3---|

"now I'm close to dying..."

PRE-CHORUS:
"everything's failing with thoughts of you..."
a|-------------------|
A|---x---x---x---x---|
G|---4---2---2---2---|
D|---4---2---0---0---|
A|---2---0---x---x---|
E|-----------3---3---|

"would you try to hear me out?..."

CHORUS:
"the mood of distraction's prevailing tonight..."
a|-------------------|
A|-------------------|
G|---7---7---7---7---|
D|---7---7---7---7---|
A|---5---4---5---x---|
E|-----------7---3---|

"and you're gone and I'm on my own..."

*REPEAT INTRO*

VERSE II:
"broken glass cut me to sleep..."
a|-------------------|
A|-------------------|
G|---7---7---7---7---|
D|---7---7---7---7---|
A|---5---4---5---x---|
E|-----------7---3---|

"you just got me all wrong..."

*REAPEAT PRE-CHORUS AND CHORUS*

OUTRO:
a|----0-----0-------0--------0------0-----0-------0-----0----|
A|------0-----0-------0--------0------0-----0-------0-----0--|
G|--7-----7-----7/9-----9/11------4-----4-----4/5-----5------|
D|--x-----x-----x-x-----x---------x-----x-----x-------x------|
A|--5-----5-----5/7-----7/9-------2-----2-----2/3-----3------|
E|-----------------------------------------------------------|

a|----0-----0-------0--------0------0-----0-----------------------------------|
A|------0-----0-------0--------0------0-----0---------------------------------|
G|--7-----7-----7/9-----9/11------4-----4----------------------------------7--|
D|--x-----x-----x-x-----x---------x-----x-----/5-4-5-5/7-5-4-2-4-5-5/7-5-4-7--|
A|--5-----5-----5/7-----7/9-------2-----2----------------------------------5--|
E|----------------------------------------------------------------------------|
Tap to rate this tab
 
# A B C D E F G H I J K L M N O P Q R S T U V W X Y Z