Song name
# A B C D E F G H I J K L M N O P Q R S T U V W X Y Z

Typecast - She Wont Understand tab

artist: typecast
album: Last Time
e-mail: rythmatic_12@yahoo.com
tabbed by: earnest a. tungol

weL pakinggan nyo na lng ung song pra may timing kua di ba?
kung may comments or any reactions e e-mail nyo lng sa e-mail add
ko....paki add nyo po me sa friendster:
rythmatic_12@yahoo.com
kateryan_11@yahoo.com

tuning: drop D
time laps: INTRO:      0:00-0:20
	   VERSE:      0:20-0:57
	   REFRAIN:    0:57-1:15
	   PRE-CHORUS: 1:15-1:30
	   CHORUS:     1:32-1:48
   	   VERSE:      1:49-2:22
	   REFRAIN:    2:22-2:39
	   CHORUS:     2:39-3:10
	   PRE-CHORUS: 3:10-3:30

. - palm mute

INTRO:0:00-0:20

e|---------------------------------------|
B|-----5---------5---------5-------------|
G|-------5---------5---------5-------5---|
D|---5-----5---5-----5---5-----5---5---5-|
A|-3---------3---------3---------3-------|
D|---------------------------------------|

e|---------------------------------|
B|---------------------------------|
G|-----5-------5-------5-------5---|
D|---5---5---5---5---5---5---5---5-|
A|-2-------2-------2-------2-------|
D|---------------------------------|

e|---------------------------------|
B|---------------------------------|
G|-----5-------5-------5-------5---|
D|---5---5---5---5---5---5---5---5-|
A|---------------------------------|
D|-3-------3-------3-------3-------|

e|-----------1---------3--1-0-|
B|-----3---------3--------3-3-|
G|-------2---------2------2-2-|
D|---0-----0---0-----0----0-0-|
A|----------------------------|
D|-0--------------------------|


VERSE:0:20-0:57

e|-------------------------------------------------------------------------|
B|-------------------------------------------------------------------------|
G|-55555555555555555-55555555555555555-------------------------------------|(2X)
D|-55555555555555555-55555555555555555-33333333333333333-00000000000000000-|
A|-33333333333333333-22222222222222222-33333333333333333-00000000000000000-|
D|-------------------------------------33333333333333333-00000000000000000-|


REFRAIN:0:57-1:15

e|-------------------------------------|
B|-------------------------------------|
G|-------------------22222222222222222-|
D|-33333333333333333-22222222222222222-|
A|-33333333333333333-00000000000000000-|
D|-33333333333333333-------------------|

e|---------------------------------------|
B|---------------------------------------|
G|-5555-5555-----------------------------|
d|-5555-5555-7777-5555-33333333333333333-|
A|-3333-2222-7777-5555-33333333333333333-|
D|-----------7777-5555-33333333333333333-|


PRE-CHORUS:1:15-1:30

e|------------------------------------|
B|------------------------------------|
G|-22222222-44444444-555555-----------|
D|-22222222-44444444-555555-5555-3333-|
A|-00000000-22222222-333333-5555-3333-|
D|--------------------------5555-3333-|
   ........ ........ ...... .... ....

e|-------------------------------|
B|-------------------------------|
G|-22222222-44444444-------5-----|
D|-22222222-44444444---5-----5---|
A|-00000000-22222222-3---3-----3-|
D|-------------------------------|
   ........ ........


CHORUS:1:32-1:48

e|-------------------------------------|
B|-------------------------------------|
G|-55555555-55555555-------------------|
D|-55555555-55555555-77777777-33333333-|
A|-33333333-22222222-77777777-33333333-|
D|-------------------77777777-33333333-|

e|---------------------------------|
B|---------------------------------|
G|-55555555-55555555---------------|
D|-55555555-55555555-77777777-3--3-|
A|-33333333-22222222-77777777-3--3-|
D|-------------------77777777-3--3-|


VERSE:1:49-2:22

e|----------------------------------------------------------------------------|
B|----------------------------------------------------------------------------|
G|-55-55555555555555555-55555555555555555-------------------------------------|(2X)
D|-55-55555555555555555-55555555555555555-33333333333333333-77777777777777777-|
A|-33-33333333333333333-22222222222222222-33333333333333333-77777777777777777-|
D|----------------------------------------33333333333333333-77777777777777777-|


REFRAIN:2:22-2:39

e|-------------------------------------|
B|-------------------------------------|
G|-------------------22222222222222222-|
D|-33333333333333333-22222222222222222-|
A|-33333333333333333-00000000000000000-|
D|-33333333333333333-------------------|

e|---------------------------------------|
B|---------------------------------------|
G|-5555-5555-----------------------------|
d|-5555-5555-7777-5555-33333333333333333-|
A|-3333-2222-7777-5555-33333333333333333-|
D|-----------7777-5555-33333333333333333-|


CHORUS:2:39-3:10

e|-------------------------------------|
B|-------------------------------------|
G|-55555555-55555555-------------------|(4X)
D|-55555555-55555555-77777777-33333333-|
A|-33333333-22222222-77777777-33333333-|
D|-------------------77777777-33333333-|


PRE-cHORUS:3:10-3:30

e|------------------------------------|
B|------------------------------------|
G|-22222222-44444444-555555-----------|
D|-22222222-44444444-555555-5555-3333-|
A|-00000000-22222222-333333-5555-3333-|
D|--------------------------5555-3333-|
   ........ ........ ...... .... ....

e|------------------------------|
B|------------------------------|
G|-22222222-44444444-555555-----|
D|-22222222-44444444-555555--3--|
A|-00000000-22222222-333333--3--|
D|---------------------------3--|
   ........ ........ ......


LYRICS:

INTRO: 0:00-0:20

VERSE: 0:20-0:57
Am I boring you out?
Am I disturbing your pace?
Did I break anything on you
That would drip down your sail?
Did I trouble your life?
Did I make you aware?
You've said you know it all
And I do hope you are right

REFRAIN: 0:57-1:15
I'll write all the things you are today
And it won't be easy cause it will bother your way

PRE-CHORUS: 1:15-1:30
I'm sorry for caring for you
I'm sorry
And it hurts falling for you

CHORUS: 1:32-1:48
She won't understand
She puts her mind on what she knows
She won't know anything
She won't know everything

VERSE: 1:49-2:22
You are breaking me out
You don't have a chance too see
Your words tear a thousand pieces
And it falls all over me
Can we make up for it?
You wont make up for me
You go on your way
And listen to things that you want to here

REFRAIN: 2:22-2:39
I'll write all the things you are today
But it won't be easy cause it will bother your way

CHORUS: 2:39-3:10
She won't understand
She puts her mind on what she knows
She won't know anything
She won't know everything she knows

PRE-CHORUS: 3:10-3:30
I'm sorry for caring for you
I'm sorry
And it hurts, I'm sorry


nga pla binabati ko ang mga pwendz ko sa cavite sa parklane
starring:
our band:        TEAR HEAR
lead vocal:      Rey Camaliga
2nd vocal/
bass guitarist:  Kate Ryan Ecal
lead guitarist:  Jonathan Arizala
rythm guitarist: Earnest Tungol ako poh yan hahaha
and our drummer: Angelo Arizala

ay c Von Louie Ecal at kay Inggo pa pla yan jan kami kumukuha ng idea
sa compo namin lufetz yan...
^_^
Tap to rate this tab
 
# A B C D E F G H I J K L M N O P Q R S T U V W X Y Z