Song name
# A B C D E F G H I J K L M N O P Q R S T U V W X Y Z

Typecast - Outcomes The Brave tab

Artist:Typecast
Album:The Infatuaton is Always There
Song: Outcomes the brave
email:alexisonfire066@yahoo.com

x - muted note
/ - slide up
\ - slide down
. - palm mute

-just listen to the song for strumming,timings and pauses

Dropped D Tuning

INTRO/VERSE GUITAR RIFF
Low volume W/chorus and light distortion

  collapsing the passion that weakened the senses..
e|--------------------------------|
B|-----------0------------0-------|
G|------4-----------4~-------4-~--|
D|----4----4------4----4---4------|
A|--6----------6------------------|
D|--------------------------------|


CHORUS

  run.......
e|--------------------|
B|--------------------|
G|-55555555-----------|
D|-55555555-77777777--|
A|-33333333-77777777--|
E|----------55555555--|

REPEAT VERSE
CHORUS
BRIDGE PART UNDER CONSTRUCTIOn


OUTRO

e|------------------------------------------------------------------|
B|------------------------------------------------------------------|
G|--5x5x5x5x5x5x5x5-----------------5x5x5x5x5x5x5x5-----------------|
D|--5x5x5x5x5x5x5x5-2x2x2x2x2x2x2x2-5x5x5x5x5x5x5x5-2x2x2x2x2x2x2x2-|
A|--3x3x3x3x3x3x3x3-2x2x2x2x2x2x2x2-3x3x3x3x3x3x3x3-2x2x2x2x2x2x2x2-|
D|------------------2x2x2x2x2x2x2x2-----------------2x2x2x2x2x2x2x2-|

e|------------------------------------------------------------------------------|
B|------------------------------------------------------------------------------|
G|--5x5x5x5x5x5x5x5---------------------5x5x5x5x5x5x5x5---------------------0~--|
D|--5x5x5x5x5x5x5x5-2x2x2x2x2x2x2x2-000-5x5x5x5x5x5x5x5-2x2x2x2x2x2x2x2-000-2~--|
A|--3x3x3x3x3x3x3x3-2x2x2x2x2x2x2x2-000-3x3x3x3x3x3x3x3-2x2x2x2x2x2x2x2-000-2~--|
D|------------------2x2x2x2x2x2x2x2-000-----------------2x2x2x2x2x2x2x2-000-----|

                                    ...                                 ....


~END

typecast will be releasing their new record watch out for it just visit www.typecastmusic.org
for more info's and other stuffs.
Tap to rate this tab
 
# A B C D E F G H I J K L M N O P Q R S T U V W X Y Z