Song name
# A B C D E F G H I J K L M N O P Q R S T U V W X Y Z

Typecast - Not About You tab

Tuning-standard

Intro-

GtrI 2x

|-x-p0--t12-p4h5h7--0~h4-t12--p4h5h7--0h4-h7-------|
|-x------------------------------------------------|
|-6------------------------------------------------|
|-6------------------------------------------------|
|-4------------------------------------------------|
|--------------------------------------------------|

|-x-p0--t12-p4h5h7--0~h4-t12--p4h5h7--0h4-h7-------|
|-x------------------------------------------------|
|-x------------------------------------------------|
|-7------------------------------------------------|
|-7------------------------------------------------|
|-5------------------------------------------------|


|-x-p0--t12-p4h5h7--0~h4-t12--p4h5h7--0h4-h7-------|
|-x------------------------------------------------|
|-x------------------------------------------------|
|-2------------------------------------------------|
|-2------------------------------------------------|
|-0------------------------------------------------|

|-x-p0--t12-p4h5h7--0~h4-t12--p4h5h7--0h4-h7-------|
|-x------------------------------------------------|
|-4------------------------------------------------|
|-4------------------------------------------------|
|-2------------------------------------------------|

GtrII
|---------|---------|---------|---------|
|---------|---------|---------|---------|
|-6-------|---------|---------|---------|
|-6-------|---7-----|--2~-----|---4-----|2x
|-4-------|---7-----|--2~-----|---4-----|
|---------|---7-----|--2~-----|---4-----|





Tap to rate this tab
 
# A B C D E F G H I J K L M N O P Q R S T U V W X Y Z