Song name
# A B C D E F G H I J K L M N O P Q R S T U V W X Y Z

Typecast - My Farewell tab

Song:      My Farewell
Artist:    Typecast
Album:     Every Moss and Cobweb
Tabbed by: Paul Anthonie Antoc
E-mail:    paul_antoc@yahoo.com(YM & Friendster)
Address:   Mariveles,Bataan,Philippines
contact #: 09184423602




Drop D Tuning


Intro:
e|-------------------------------------|
B|-44-44-44-44-------55-55-55-55\4-----|
G|-44-44-44-44-(2x)--44-44-44-44\4-(2x)| 2x
D|-66-66-66-66-------77-77-77-77\6-----|
A|-------------------------------------|
D|-------------------------------------|

Grt.2
e|------------------------------------|
B|------------------------------------|
G|-13131313-13131313-9999-66-9999-66--| 2x
D|-11111111-11111111-9999-66-9999-66--|
A|-11111111-11111111-7777-44-7777-44--|
D|------------------------------------|


Verse:
Gtr.1
e|---------------------------------------|
B|--4~-4~----12-12-----------------------|
G|--4~-4~----------11-11-13\9-9-8h9-(2x)-| 2x
D|--6~-6~--------------------------------|
A|---------------------------------------|
D|---------------------------------------|


Gtr.2 
e|--------------------------------------|
B|--------------------------------------|
G|--9p8~--8-----9~------6----6-6---6----| 2x
D|--9-------9---9~----6--6--6---6-6-----|
A|--7---7-----7-----4-----4------4------|
D|--------------------------------------|


Before the chorus:
e|--------------------|
B|--------------------|
G|--888888/99999------|
D|--xxxxxx/xxxxx------|
A|--666666/77777------|
D|--------------------|


Chorus:
Gtr.1
e|-----------------------------------5*----|
B|-44444444/55555555--------------5*---5*--|
G|-44444444/44444444--66-66-66-66----------| 2x
D|-66666666/77777777--66-66-66-66----------|
A|--------------------44-44-44-44----------|
D|-----------------------------------------|

Gtr.2
e|----------------------------------------------5*---------------------------|
B|--------------------------------------------5*---5*---------------------9--|
G|-13131313131313/1414141414\9999999-----------------------------9p8h9h11----| 2x
D|-13131313131313/1414141414\9999999--11111111---------11111111--------------|
A|-11111111111113/1212121212\7777777--11111111---------11111111--------------|
D|------------------------------------11111111---------11111111--------------|


Repeat Intro:
Repeat Verse:
Repeat Chorus:


Bridge:

Gtr.1:
e|---------4---------4-----|
B|-5p4h5h7---5p4h5h7-------|
G|-------------------------| 8x
D|-------------------------|
A|-------------------------|
D|-------------------------|

Gtr.2:
e|---------------------------|
B|---------------------------|
G|-9p8h9h11h13--9p8h9h11h13--| 8x
D|---------------------------|
A|---------------------------|
D|---------------------------|


Last part of bridge:
e|--------------------|
B|--------------------|
G|--------------------|
D|-7~--7~-------------|
A|-7~--7~-------------|
D|-7~--7~-PICKSLIDE---|


Chorus:
e|---------------------------------------------5*-------------------------|
B|-------------------------------------------5*---5*-------------------9--|
G|-131313131313/1414141414\9999999----------------------------9p8h9h11----| 2x
D|--x-x-x-x-x-x--x-x-x-x-x-xxxxxxx--11111111--------11111111--------------|
A|-111111111111/1212121212\7777777--11111111--------11111111--------------|
D|----------------------------------11111111--------11111111--------------|

Outro:
e|---------------------------------------------------------------|
B|---------------------------------------------------------------|
G|-9999/11111111/13131313/14141414--161616\131313\11/13131313----|
D|-xxxx--x-x-x-x--x-x-x-x--x-x-x-x---x-x-x--x-x-x--x--x-x-x-x----| 2x
A|-7777/-9-9-9-9/11111111/12121212--141414\111111\-9/11111111----|
D|---------------------------------------------------------------|


Last Chords:
e|--------------|
B|--------------|
G|-13131313\\---|
D|-11111111\\---|
A|-11111111\\---|
D|--------------|

End
Tap to rate this tab
# A B C D E F G H I J K L M N O P Q R S T U V W X Y Z