Guitaretab - guitar tabs
Song name
# A B C D E F G H I J K L M N O P Q R S T U V W X Y Z

Typecast - Dont Take Me From Me tab

Typecast
Don't Take Me From Me
Every Moss And Cobweb
Tabbed by: paramore_fans@yahoo.com

Tuning: Standard EADGBe all 3 guitars

Verse 1: Say what you want to

Guitar 1:
e|------------|
B|------------|
G|-4--3-------|
D|-4--4--2--5-|
A|-2--1--2--5-|
E|-------0--3-|

Guitar 2: Idle


Don't waste yourself

Guitar 1:
e|------------|
B|------------|
G|-4--4-------|
D|-4--3--7--6-|
A|-2--1--7--7-|
E|-------5--4-|

Guitar 2:
e|------------|
B|------------|
G|-4--6--7--4-|
D|-x--x--x--x-|
A|-2--4--5--2-|
E|------------|


Refrain: They may cloud your reasons...

Guitar 1:
e|-----------------------------------------|
B|-----------------------------------------|
G|-----------------------------------------|
D|-5------4------5------7-7--7-7--7-7--8-8-|
A|-5(x16)-5(x16)-5(x16)-7-7--7-7--7-7--9-9-|
E|-3------2------3------5-5--5-5--5-5--6-6-|

Guitar 2:
e|-5---2-3-2-------|
B|---3-------3-2-3-|
G|-----------------|
D|-----------------| (x4)
A|-----------------|
E|-----------------|


Chorus: I'm not telling you what to be...

Guitar 1:
e|------------|------------|
B|------------|------------|
G|-7--7--7----|-4--2-------|
D|-7--7--7--5-|-4--2--2--5-|
A|-5--------5-|-2--0--2--5-|
E|----5--7--3-|-------0--3-|

Guitar 2:
e|------------|-----------------------0----|
B|------------|----------2---------------2-|
G|-7------11--|-------2-----2--------------|
D|-x-------x--|-2h4p2----------2h4p2-------|
A|-5-------9--|----------------------------|
E|------------|----------------------------|
                            x2

Post Chorus:

Guitar 1:
e|---------|---------|
B|---------|---------|
G|-4-4-4-4-|---------|
D|-4-4-4-4-|-5-5-5-5-|
A|-2-2-2-2-|-5-5-5-5-|
E|---------|-3-3-3-3-|
      x2        x2

Guitar 2:
e|-2-2-2-------5-5-5-5-|-2-2-2---------------|
B|-------3-3-3---------|-------3-3-3-2h3p2h3-|
G|---------------------|---------------------|
D|---------------------|---------------------| (x2)
A|---------------------|---------------------|
E|---------------------|---------------------|


Verse 2: You donít need them to prove them...

Guitar 1:
e|------------|
B|------------|
G|-4--4-------|
D|-4--3--7--6-|
A|-2--1--7--7-|
E|-------5--4-|

Guitar 2:* means harmonics
e|-------------------|
B|----5*-------------|
G|---------pickslide-|
D|-------------------|
A|-------------------|
E|-------------------|


Itís best if you let it go

Guitar 1:
e|------------|
B|------------|
G|-4--4-------|
D|-4--3--7--6-|
A|-2--1--7--7-|
E|-------5--4-|
[ Tab from: http://www.guitaretab.com/t/typecast/84504.html ]
Guitar 2:
e|------------|
B|------------|
G|-4--6--7--4-|
D|-x--x--x--x-|
A|-2--4--5--2-|
E|------------|


(Repeat Refrain and chorus)


Bridge:: Bass

Guitar 1: Idle

Guitar 2:
e|--------|
B|----5*--|
G|--------|
D|--------|
A|--------|
E|--------|


then at 2:15

Guitar 1:
e|---------------------0-|
B|-------3---2---2h3-0---|
G|-----4---4---2---------|
D|---4-------------------| (x6)
A|-2---------------------|
E|-----------------------|

Guitar 2: Idle


then at 2:32

Guitar 1:
e|--------2h3p2---|-------------------------|
B|----------------|-------------------------|
G|-4~--7--------5*|-4-----3-----------------|
D|-4~--x----------|-4(x4)-4(x4)-7(x4)-6(x4)-|
A|-2~--5----------|-2-----1-----7-----7-----|
E|----------------|-------------5-----4-----|
                        repeat many times

Guitar 2:
e|----------12p10-|--------------------|
B|----------------|--------------------|
G|----------------|-4--6--7--9---------|
D|-9~-------------|-x--x--x--x---------|
A|-9~--9/10-------|-2--4--5--7---------|
E|-7~-------------|--------------------|
                     repeat many times

Guitar 3:
e|-2-|-2-2-2-0-0-0-5-5-5-5-5-5-5-5-5-5-|----------------|
B|-3-|---------------------------------|----------------|
G|-4-|---------------------------------|-11--9--7--6--7-|
D|-4-|---------------------------------|--x--x--x--x--x-|
A|-2-|---------------------------------|--9--7--5--4--5-|
E|---|---------------------------------|----------------|
              repeat many times


then at 3:26

Guitar 1:
e|--------------|-------------------|----|
B|--------------|-------------------|----|
G|--------------|-------------------|-4~-|
D|-2------2-----|-5-----7-----8-----|-4~-|
A|-2(x4)--2(x4)-|-5(x8)-7(x4)-9(x4)-|-2~-|
E|-0------0-----|-3-----5-----6-----|----|

Guitar 2:
e|---------------|--------------|----|
B|---------------|--------------|-5*-|
G|-11-----11-----|-7/14--16--18-|----|
D|--x(x5)--x(x5)-|-x/-x---x---x-|----|
A|--9------9-----|-5/12--14--16-|----|
E|---------------|--------------|----|


Don't give up!! Don't give in!! Let it go!! This is who we are!!!

______________________________________________________

Say what you want to as long as you know you are right
Donít waste yourself, youíre not like them
Youíre better than this

They may cloud your reasons
And they will try to break you
But donít forget where you came from
Everything will be fine

Iím not telling you what to be
You know what you want
Remember what youíve learned
It will be okay

You donít need them to prove them youíre something that youíre not
Itís best if you let it go
Then youíll realize Iím right
Related for Dont Take Me From Me tab