Song name
# A B C D E F G H I J K L M N O P Q R S T U V W X Y Z

Typhoid Mary - Last Line Of Defense tab

http://www.typhoidmarymusic.com/

I love this song so I thought I'd tab it out!! Not many people might have heard it, but 
got it with the "Hi My Name is Mark" podcast (by Mark Hoppus). It came as a free song 
with another one, which I might tab out also. Enjoy it! (if you know it!!)

Drop Db (step below Drop D)

Intro
|-----------------------------------|
|-----------------------------------|
|--5-5-5----------------------------|
|--5-5-5-2-2-2-3-3-3-3-3-3-3-3-3-3--|
|--2/3-3-2-2-2-3-3-3-3-3-3-3-3-3-3--|
|--------2-2-2-3-3-3-3-3-3-3-3-3-3--|

|-------------------------------|
|-------------------------------|
|--5-5-5------------------------|
|--5-5-5-2-2-2-3-3-3-3-3-3-x-x--|
|--2/3-3-2-2-2-3-3-3-3-3-3-x-x--|
|--------2-2-2-3-3-3-3-3-3-x-x--|

Main Riff
Guitar One:
|--------------------------------|
|--------------------------------|
|--------------------------------|
|--------------------------------|
|--------------------------------|
|--------------------------------|

|--------------------------------|
|--------------------------------|
|--5/7-7-7-7-7-7/9-9-9-9-9-------|
|--------------------------------|
|--------------------------------|
|--------------------------------|

|--------------------------------|
|--------------------------------|
|--------------------------------|
|--------------------------------|
|--------------------------------|
|--------------------------------|

|--------------------------------|
|--------------------------------|
|--7/9-9-9-9-9-9/12-12-12-12-12--|
|--------------------------------|
|--------------------------------|
|--------------------------------|

Guitar Two:
|-----------------------------------|
|-----------------------------------|
|--5-5-5----------------------------|
|--5-5-5-2-2-2-3-3-3-3-3-3-3-3-3-3--|
|--2/3-3-2-2-2-3-3-3-3-3-3-3-3-3-3--|
|--------2-2-2-3-3-3-3-3-3-3-3-3-3--| x4

Verse:
|---------------------------------------------------------|
|---------------------------------------------------------|
|----------12-12---12-12-12-12---------12-12--12-9-9-9-9--|
|--7-7---7---------------------3-3---3--------------------|
|--7-7---7---------------------3-3---3--------------------|
|--7-7---7---------------------3-3---3--------------------| x4

There's something that comes in on the the 3rd time but i cant figure it out!

Pre-chorus:
|-------------|
|-------------|
|-------------|
|--0~--2-3~---|
|--0~--2-3~---|
|--0~--2-3~---|

Chorus:
|--------------------|
|--------------------|
|--------------------|
|--10---9---7---3-5--|
|--10---9---7---3-5--|
|--10---9---7---3-5--| x2 (simple straight 8 strumming pattern)

Repeat Main Riff (guitar two only), verse, pre-chorus and chorus.

Interlude:
|--------------------------|
|--------------------------|
|--------------------------|
|--7~---10~-5~-3~---10~-9--|
|--7~---10~-5~-3~---10~-9--|
|--7~---10~-5~-3~---10~-9--| x3
                        . <- staccato first time only
|------------|
|------1~-0--|<- other guitar (staccato also)
|------------|
|--3~--5~-5--|
|--3~--5~-5--|
|--3~--5~-5--|
          .
Do chorus fast with palm mute x2, then normal chorus x2.

End:
|-------------------------------|
|-------------------------------|
|--5-5-5-5-5-5-5-5-5-5-5-5-x-x--|
|--5-5-5-5-5-5-5-5-5-5-5-5-x-x--|
|--3-3-3-3-3-3-3-3-3-3-3-3-x-x--|
|-------------------------------| x3

|--------------------|
|--------------------|
|--5-5-5-5-5-5-x-5~--|
|--5-5-5-5-5-5-x-5~--|
|--3-3-3-3-3-3-x-3~--|
|--------------------|
Tap to rate this tab
 
# A B C D E F G H I J K L M N O P Q R S T U V W X Y Z