Typhoon - The Sickness Unto Death tab

------------------------------------------------------------------------------------|
-----3----3----3----3------3----3----3---3-------3---3---3---3------3---3---3---3---|
-----0----0----0----0------0----0----0---0-------0---0---0---0------0---0---0---0---|
------------------------------------------------------------------------------------|
------------------------0--------------------2-------------------0------------------|
--3---------------------------------------------------------------------------------|




------------------------------------------------------------------------------------|
----3-------3------3-------3-------3-----3-3p2-2-2-2-2-2-2-2------------------------|
----0---1p0----1p0----1p0----------0-----0-----0-0-0-0-0-0-0------------------------|
------------------------------------------------------------------------------------|
--------------------------------2----------2p0-0-0-0-0-0-0-0------------------------|
-3----------------------------------------------------------------------------------|



pretty straightforward. This is just the basics of the song though, there are a few 
little add-ins that he does. If you figure the rest of it out, feel free to resubmit my tab 
with the additional phrases under your own name.
Tap to rate this tab
 
# A B C D E F G H I J K L M N O P Q R S T U V W X Y Z