Song name
# A B C D E F G H I J K L M N O P Q R S T U V W X Y Z

Typhoon - The Sickness Unto Death tab

-------------------------------------------------------------------------------------------------|
-----3-----3-----3-----3------3-----3-----3-----3-----3-----3-----3-----3-----3-----3-----3-----3|
-----0-----0-----0-----0-------------------------------------------------------------------------|
------------------------------4-----4-----4-----4-----4-----4-----4-----4-----4-----4-----4-----4|
---------------------------0-----0-----0-----0-----2-----2-----2-----2-----0-----0-----0-----0---|
--3-----3-----3-----3----------------------------------------------------------------------------|




-------------------------------------------------------------------------------|
-----3---------3------3-------3-----3-----3-----3-----3-----2-----2-----2-----2|
-----0----0h2p0----0h2-----0h2-------------------------------------------------|
------------------------------------4-----4-----4-----4-----2-----2-----2-----2|
---------------------------------2-----2-----2-----2-----0-----0-----0-----0---|
--3-------3-------3-------3----------------------------------------------------|
Tap to rate this tab
 
# A B C D E F G H I J K L M N O P Q R S T U V W X Y Z