Song name
# A B C D E F G H I J K L M N O P Q R S T U V W X Y Z

Typhoon - The Lake tab

These are the guitar picking parts to The Lake by Typhoon.

E standard tuning

This is played during the verses
|---------------------------------------|
|------------7-7-7-7---------8-8-8-8----|
|----4-4-4-4---------5-5-5-5------------|
|---------------------------------------|
|-----------5-5-5-5---------7-7-7-7-----|
|---3-3-3-3---------5-5-5-5-------------|

This is played during the breaks
|-------/7-5-3-2----/7-6-5---3----------|
|---------------------------------------|
|---------------------------------------|
|---------------------------------------|
|---------------------------------------|
|---------------------------------------|

There's also a section with distortion towards the middle of the song, in which the 
second part above is played over, I have not tabbed out the distorted guitar part.
Tap to rate this tab
# A B C D E F G H I J K L M N O P Q R S T U V W X Y Z