Song name
# A B C D E F G H I J K L M N O P Q R S T U V W X Y Z

Typo Negative - Burnt Flowers Fallen tab

Electric Guitar in Crunch, i think.

-------------------------------------------------------|
-------------------------------------------------------|
-------------------------------------------------------|
--7-----7---x-7-x-7-x-7-7-7-7--------------------------|
--7-----7---x-7-x-7-x-7-7-7-7--------------------------|
--5-----5---x-5-x-5-x-5-5-5-5--------------------------|

-------------------------------------------------------|
-------------------------------------------------------|
--5-5-5---5---x-5-x-5-x-5-5-5--------------------------|
--5-5-5---5---x-5-x-5-x-5-5-5--------------------------|
--3-3-3---3---x-3-x-3-x-3-3-3--------------------------|
-------------------------------------------------------|

-------------------------------------------------------|
-------------------------------------------------------|
--5/s-7---7---7-7--7---7-7-7-7-------------------------|
--5/s-7---7---7-7--7---7-7-7-7-------------------------|
--3/s-5---5---5-5--5---5-5-5-5-------------------------|
-------------------------------------------------------|


-------------------------------------------------------|
-------------------------------------------------------|
--7/s--5--5--5-5/s--7-7--7-----------------------------|
--7/s--5--5--5-5/s--7-7--7-----------------------------|
--5/s--3--3--3-3/s--5-5--5-----------------------------|
-------------------------------------------------------|
THIS IS THE INTRO AND THIS IS BASICALLY WHAT YOU ARE
GOING TO PLAY THE WHOLE SONG. ILL GET THE NEXT 2
PARTS SOME OTHER DAY. ;)
AND TY FOR TRYING THIS OUT NOT REALLY SURE IF THIS IS CORRECT
SO TRY TO COMPETE WITH ME TO GET THE CLOSEST.
Tap to rate this tab
# A B C D E F G H I J K L M N O P Q R S T U V W X Y Z