Song name
# A B C D E F G H I J K L M N O P Q R S T U V W X Y Z

Tyr - Ragnarok tab

Highlighted       Show chord diagrams
Hi, hope everything is correct. don't know all the lyrics. the F5- position I am
talking about in the verses is 13320 .I'm sure that has a better name, but it's
basicaly 5- with a 5.

Made by Zvi.


Intro:
   F                  E                F               E
E----0---0---0---0----0---0---0---0----0---0---0---0----0---0---0---0--|
B--6---6---6---6----5---5---5---5----6---6---6---6----5---3---1---0----|
G----------------------------------------------------------------------|
D----------------------------------------------------------------------|
A----------------------------------------------------------------------|
E----------------------------------------------------------------------|


F                     E               F                E
E----0---0---0---0----0---0---0---0----0---0---0---0----0---0---0---0---|
B--6---6---6---6----5---5---5---5----6---6---6---6----5---3---1---0---2-|
G-----------------------------------------------------------------------|
D-----------------------------------------------------------------------|
A-----------------------------------------------------------------------|
E-----------------------------------------------------------------------|


First Verse:

Am       F5-       C      E  E/G#
some awesome nordic lyrics
Am        F        E       Am                     X2
some more awesome lyrics

Bridge:

F     E     F     E
more nordic lyrics                                X2


Second Verse:

Am       F5-       C      E  E/G#
some awesome nordic lyrics
Am        F        E       Am                     X2
some more awesome lyrics


Bridge, distortion enters:

F5 E5 F5 E5 F5 E5 F5 E5   E5
F5 E5 F5 E5 F5 E5 F5 
D5 C5 B5                     X2

First Solo
(on the chords of the verse)

Am         F5-          C               E   E/G#
Revenge returns to us,  this returns to me

Am        F             E         Am
We are bound to battle, for eternity

Am         F5-                   C               E   E/G#
The Wolf, restrained in chains , dragon in the deep - This

Am        F                E               Am
- war,      will throw us corpses down the *something*

Bridge:
Dm
With heavey hearts we head

Dm
On towards the end

Em
I've done all I can

Em
Never will I bend

Am
Battle clan we ride

Am
Over barren land

F                 E
Nothing matters, on the battle field we stand

[Guitar interlude played on the verse's chords, then the solo on the same chords.]


    Am         F5-          C          E   E/G#
And I , heared my unborned childrens requiem.

Am     F              E          Am
 I saw carved upon a stone my epitath.

      Am       F5-            C            E     E/G#
Sometimes, it seems to me there is nothing left bet-

Am   F        E        Am
ween, me and eternity again.

Bridge:
Dm
With heavey hearts we head

Dm
On towards the end

Em
I've done all I can

Em
Never will I bend

Am
Battle clan we ride

Am
For we have to try

F                 E
Nothing matters, on the battle field we -

Last Verse:

Am            F5-          C           E   E/G#
lie. Oh we'll rise again, for a better day.

Am               F                  E               Am
Earth green with waterfalls, where eagles hut their prey

Am            F5-          C           E   E/G#
*some hard to understand lyrics*

Am               F                  E               Am

*some more of those lyrics*

Ending:

    F    E   F     E
The dra-gon, will *something something*

    F    E    F  E             Am
*something,* en-ter the world again.
Tap to rate this tab
 
# A B C D E F G H I J K L M N O P Q R S T U V W X Y Z