Song name
# A B C D E F G H I J K L M N O P Q R S T U V W X Y Z

Tyr - Sinklars Visa tab

This goes after the three armonics using the floyd rose...

|-------------19-18---19------------22-21---22-19-18-19-19h21--------------|
|--20-19---20------------20-19---20----------------------------------------|
|--------------------------------------------------------------------------|
|--------------------------------------------------------------------------|
|--------------------------------------------------------------------------|
|--------------------------------------------------------------------------|

|-19-18---16-17-17h19-17-16------------------------------------------------|
|--------------------------------------------------------------------------|
|--------------------------------------------12p11h12p11-12p11h12p11-------|
|--------------------------------12p11h12p11-------------------------------|
|--------------------------------------------------------------------------|
|--------------------------------------------------------------------------|

|----------------------------10p9h10p9h15p9h10p9---------------------------|
|-12p11h12p11-12p11h12p11--------------------------------------------------|
|--------------------------------------------------------------------------|
|--------------------------------------------------------------------------|
|--------------------------------------------------------------------------|
|--------------------------------------------------------------------------|

|-9p7h9p7h12p7h9p7---------------------------------------------------------|
|--------------------------------------------------------------------------|
|--------------------------------------------------------------------------|
|--------------------------------------------------------------------------|
|--------------------------------------------------------------------------|
|--------------------------------------------------------------------------|

:) 
Contact: xb6h3@hotmail.com
Tap to rate this tab
# A B C D E F G H I J K L M N O P Q R S T U V W X Y Z