Song name
# A B C D E F G H I J K L M N O P Q R S T U V W X Y Z

Tyr - Blood Of Heroes tab

                                      Blood of Heroes
                                           By
                                           TYR
*Tabbed by Ana Chavez
*Tuning: Standard- e,B,G,D,A,E

* ^ : bend string
* ~ : hold note
* PM: palm muting
* h : hammer on
* / : slide

*Intro/ Main Riff:   (Repeat several times)
|-----------------------------------|---------------------------------------|
|-----------------------------------|---------------------------------------|
|-----------------------------------|---------------------------------------|
|-----------------------------------|---------------------------------------|
|-10-----9-----7------6h7---7---9---|---10-----9-----7------7h9----7--6-----|
|----0-0---0-0---0-0------0---0-----|------0-0---0-0---0-0------0-----------|
     PM    PM    PM      PM  PM            PM    PM    PM      PM

    |----------(3X)------------|           end for 4th time

(when drum fills start play this, then continue with the main riff)
--------------------------------|
--------------------------------|
--------------------------------|
--------------------------------|
-6h7---6-7-9-10-----------------|
--------------------------------|


*Verse 1:
|-----------------------------------|
|-----------------------------------|
|-----------------------------------|
|-----------------------------------|
|-7----9--9----12--12------14-------|
|-----------------------------------|
"Fairest place upon this earth...."

|-------------------------|-----------------------------------------------|
|-------------------------|-----------------------------------------------|
|-------------------------|-----------------------------------------------|
|---5-4---5-4---5-7-------|-----------------------------------------------|
|---7-6---7-6---7-9-------|--------10--9--7---9--10~~~~-------------------|
|-------------------------|-----------------------------------------------|
   |-------(6X)-----------------------------------------------------------|

|---------------------------------------|
|---------------------------------------|
|---------------------------------------|
|---------------------------------------|
|---------------------------------------|
|--0-0-0-0------0-0-0-0-------0-0-------|
    PM            PM          PM
  "Legends should recall their..."


*Chorus:   (Repeat 4X)
|-----------------------------------|---------------------------------------|
|-----------------------------------|---------------------------------------|
|-----------------------------------|---------------------------------------|
|-----------------------------------|---------------------------------------|
|-10-----9-----7------6h7---7---9---|---10-----9-----7------7h9----7--6-----|
|----0-0---0-0---0-0------0---0-----|------0-0---0-0---0-0------0-----------|
     PM    PM    PM      PM  PM            PM    PM    PM      PM

    |----------(3X)------------|            end of 4th

(play this after then repeat chorus 4X)
--------------------------------|
--------------------------------|
--------------------------------|
--------------------------------|
-6h7---6-7-9-10-----------------|
--------------------------------|

*"Bridge":
|-----------------------------------|
|-----------------------------------|
|-----------------------------------|
|-----------------------------------|
|-7----9--9----12--12------14-------|
|-----------------------------------|
              "He fell alone..."

*Verse 2:
|-------------------------|-----------------------------------------------|
|-------------------------|-----------------------------------------------|
|-------------------------|-----------------------------------------------|
|---5-4---5-4---5-7-------|-----------------------------------------------|
|---7-6---7-6---7-9-------|--------10--9--7---9--10~~~~-------------------|
|-------------------------|-----------------------------------------------|
   |-------(6X)-----------------------------------------------------------|

|---------------------------------------|
|---------------------------------------|
|---------------------------------------|
|---------------------------------------|
|---------------------------------------|
|--0-0-0-0------0-0-0-0-------0-0-------|
    PM            PM          PM
  "Legends should recall their..."

*Chorus:   (Repeat 4X)
|-----------------------------------|---------------------------------------|
|-----------------------------------|---------------------------------------|
|-----------------------------------|---------------------------------------|
|-----------------------------------|---------------------------------------|
|-10-----9-----7------6h7---7---9---|---10-----9-----7------7h9----7--6-----|
|----0-0---0-0---0-0------0---0-----|------0-0---0-0---0-0------0-----------|
     PM    PM    PM      PM  PM            PM    PM    PM      PM

    |----------(3X)------------|            end of 4th

(play this after then repeat chorus 4X)
--------------------------------|
--------------------------------|
--------------------------------|
--------------------------------|
-6h7---6-7-9-10-----------------|
--------------------------------|

*"Bridge":
|-----------------------------------|
|-----------------------------------|
|-----------------------------------|
|-----------------------------------|
|-7----9--9----12--12------14-------|
|-----------------------------------|

                       *Main Riff several times*


*SOLO:
|-----------------------------------------------------------------------|
|------------------/13-12--10--12--13--15-/17-/19---17------------------|
|---/12~~~~~~~----------------------------------------------------------|
|-----------------------------------------------------------------------|
|-----------------------------------------------------------------------|
|-----------------------------------------------------------------------|

|---------------21^^--21^^----------------------------------------------|
|--19^^--19^---------------/13-12--10--12--13--15-----------------------|
|-----------------------------------------------------------------------|
|-----------------------------------------------------------------------|
|-----------------------------------------------------------------------|
|-----------------------------------------------------------------------|

|-------------------21^^----------------------------------------------------|
|--/20--------19-20-----20-19---17------15~~--------------------------------|
|----------18---------------------------------------------------------------|
|-------20------------------------------------------------------------------|
|---------------------------------------------------------------------------|
|---------------------------------------------------------------------------|
       (sweep)

|-- /19--17-15-17-15-----15-------------------------------------------------|
|---------------------19----19-17-17-15-17----------------------------------|
|---------------------------------------------------------------------------|
|---------------------------------------------------------------------------|
|---------------------------------------------------------------------------|
|---------------------------------------------------------------------------|


*Chorus:   (Repeat 4X)
"Legends should recall..."
|-----------------------------------|---------------------------------------|
|-----------------------------------|---------------------------------------|
|-----------------------------------|---------------------------------------|
|-----------------------------------|---------------------------------------|
|-10-----9-----7------6h7---7---9---|---10-----9-----7------7h9----7--6-----|
|----0-0---0-0---0-0------0---0-----|------0-0---0-0---0-0------0-----------|
     PM    PM    PM      PM  PM            PM    PM    PM      PM

    |----------(3X)------------|            end of 4th


(play this after then repeat chorus 4X)
--------------------------------|
--------------------------------|
--------------------------------|
--------------------------------|
-6h7---6-7-9-10-----------------|
--------------------------------|

(keep playing main riff while he says " For tonight we dine in hell" then)

Last part:
|-----------------------------------------------------------------------|
|-----------------------------------------------------------------------|
|-----------------------------------------------------------------------|
|-----------------------------------------------------------------------|
|--7-6--7-6---7--9--10~~~~~~--------------------------------------------|
|-----------------------------------------------------------------------|

*P.S: This is my first tab ever, so let me know what you think =)
Tap to rate this tab
# A B C D E F G H I J K L M N O P Q R S T U V W X Y Z