Song name
# A B C D E F G H I J K L M N O P Q R S T U V W X Y Z

Tyrese - Lately tab

-------------------------------------------------------------------------------
			     Lately - Tyrese
-------------------------------------------------------------------------------
Tabbed by: SilentDeftone

Tuning: E A D G B e
Use a clean tone.

D Dorian Bebop (scale degrees 1 2 b3 4 5 6 b7 7)


e|----------------------------------------------------|-----------------------|
B|----------------------------------------------------|-------13-13-----------|
G|----7-6-7~--10~-7~-9~-9-10-9-6-7-6-7~---------------|-------------14-14-----|
D|--------------------------------------10-7----------|-12-12-------------15~-|
A|-------------------------------------------10-8-----|-----------------------|
E|-/15\-------------------------------------------10~-|-----------------------|

e|--------------------------------------------------------------|
B|--------------------------------------------------------------|
G|--------------------------------------------------------------|  Then
D|-12-12-12-12-12----15-15--------------12~-12------------------| Vocals
A|----------------15-------15~----12-15--------15-12--------20\-|
E|-----------------------------15--------------------13-15~-----|

Apart from the intro, there isn't too much guitar in this song.

Transcribed 7/30/04.
Tap to rate this tab
# A B C D E F G H I J K L M N O P Q R S T U V W X Y Z