Song name
# A B C D E F G H I J K L M N O P Q R S T U V W X Y Z

Tyrone Wells - Happy As The Sun tab

Happy As The Sun Tab
Tyrone Wells
Tabbed by: Cam Nielsen


Standard Tuning
CAPO 5


Intro

    C      G       Dm      G

e|----0-x--3-3--x--1-1--x--3-3--x--|
B|----1-x--3-3--x--3-3--x--3-3--x--|
G|---0--x--0-0--x--2-2--x--0-0--x--|	Play This
D|--2---x--0-0--x--0-0--x--0-0--x--|	  Twice
A|------x--2----x-------x--2----x--|
E|------x--3----x-------x--3----x--|



Verse

    Am7             C

e|--0-x-0-x-0-x-0-x-0-x-0-x-0-x-0-x--|
B|--1-x-1-x-1-x-1-x-1-x-1-x-1-x-1-x--|	    
G|--0-x-0-x-0-x-0-x-0-x-0-x-0-x-0-x--|   Play This
D|--2-x-2-x-2-x-2-x-2-x-2-x-2-x-2-x--|     Twice
A|--0-x-0-x-0-x-0-x-3-x-3-x-3-x-3-x--|
E|----x---x---x---x---x---x---x---x--|

     Dm              Fsus      G

e|---1-x-1-x-1-x-1-x-1-x-1-x---3----|
B|---3-x-3-x-3-x-3-x-1-x-1-x---3----|
G|---2-x-2-x-2-x-2-x-3-x-3-x---0----|
D|---0-x-0-x-0-x-0-x-3-x-3-x---0----|
A|-----x---x---x---x-1-x-1-x---2----|
E|-----x---x---x---x-1-x-1-x---3----|



Chorus

    C     G     Dm    G

e|--0-0-x-3-3-x-1-1-x-3-3-x--|
B|--1-1-x-3-3-x-3-3-x-3-3-x--|
G|--0---x-0---x-2---x-0---x--|		Play This
D|--2---x-0---x-0---x-0---x--|		   x3
A|--3---x-2---x-----x-2---x--|
E|------x-3---x-----x-3---x--|


    C     G     C                 G     C   
           (should be)

e|--0-0-x-3-3-x-0---0-1-0---0-0-x-3-3-x-0--|
B|--1-1-x-3-3-x-1---1-0-1---1-1-x-3-3-x-1--|
G|--0---x-0---x-0---0-0-0---0---x-0---x-0--|
D|--2---x-0---x-2---2-------2---x-0---x-2--|
A|--3---x-2---x-3---3-------3---x-2---x-3--|
E|------x-3---x-----------------x-3---x----|



Bridge

    Dm              C

e|--1-x-1-x-1-x-1-x-0-x-0-x-0-x-0-x--|
B|--3-x-3-x-3-x-3-x-1-x-1-x-1-x-1-x--|	    
G|--2-x-2-x-2-x-2-x-0-x-0-x-0-x-0-x--|
D|--0-x-0-x-0-x-0-x-2-x-2-x-2-x-2-x--|
A|----x---x---x---x-3-x-3-x-3-x-3-x--|
E|----x---x---x---x---x---x---x---x--|

    Dm              Fsus     G

e|--1-x-1-x-1-x-1-x-1-x-1-x--3----|
B|--3-x-3-x-3-x-3-x-1-x-1-x--3----|	    
G|--2-x-2-x-2-x-2-x-3-x-3-x--0----|
D|--0-x-0-x-0-x-0-x-3-x-3-x--0----|
A|----x---x---x---x-1-x-1-x--2----|
E|----x---x---x---x-1-x-1-x--3----|



Outro

   C     G     C     G     Dm    G

e|-0-0-x-3-3-x-0-0-x-3-3-x-1-1-x-3-3-x--|
B|-1-1-x-3-3-x-1-1-x-3-3-x-3-3-x-3-3-x--|
G|-0---x-0---x-0---x-0---x-2---x-0---x--|
D|-2---x-0---x-2---x-0---x-0---x-0---x--|
A|-3---x-2---x-3---x-2---x-----x-2---x--|
E|-----x-3---x-----x-3---x-----x-3---x--|


The play order is as follows:

Intro
Verse
Chorus
Intro
Verse
Chorus
Bridge
Chorus
Outro

(I like to end by fading the intro, but really any progression using the above chords works fine…)
Tap to rate this tab
 
# A B C D E F G H I J K L M N O P Q R S T U V W X Y Z