Song name
# A B C D E F G H I J K L M N O P Q R S T U V W X Y Z

Tyrone Wells - Use Somebody tab

-----------------------------------------------------------------------------
                             Use Somebody - Tyrone Wells  
-----------------------------------------------------------------------------

Notes: yes, this song was originally done by the Kings of Leon. But Tyrone did his 
own version of this, and it’s currently one of my favorites.

It’s possible to play this without a capo of course, but 1. it’s how he does it 
live and 2. it’s easier this way. Note: start with your middle and ring fingers on 
the third frets for the first chord. 

 (CAPO ON 5TH FRET)
  Normal Tuning

     C  (320033)            
   C/E  (x20033)            
   C/F  (x30053)   
   C/Am (0x2030)            
           
     D  (x03330)
   D/F# (x43330)      

Intro (repeat once)

  C                     C/E                     C/F
|-----------------|------------------|--------------0--------------|
|-------3------3--|--------3------3--|--------3------------3-------|
|----0-----0------|----0------0------|----0-----0-----0------0---0-|
|------0-----0----|------0------0----|-----------------------------|
|-----------------|--2---------------|--3---3-----3------3-----3---|
|--3--------------|------------------|-----------------------------|x2

Verses (repeat each line once)

  C                     C/E                     C/F
|-----------------|------------------|--------------0--------------|
|-------3------3--|--------3------3--|--------3------------3-------|
|----0-----0------|----0------0------|----0-----0-----0------0---0-|
|------0-----0----|------0------0----|-----------------------------|
|-----------------|--2---------------|--3---3-----3------3-----3---|
|--3--------------|------------------|-----------------------------|x2


(At “You know…that I could use somebody”, then “it’s gonna make you notice”)


  C/Am              C                 C/F
|-----------------|--------0--------|--------0--------------------|
|-------3------3--|----------3---3--|--------------3------3-------|
|----0-----0------|----0------------|----0-----0-----0------0---0-|
|------2-----0----|------0-----0----|-----------------------------|
|-----------------|-----------------|--3---3-----3------3-----3---|
|--0--------------|--3--------------|-----------------------------|x2


Start strumming down at “Someone like me”, emphasis on the 1,4, and 7th chords. 
Strum each 4x, and repeat line 3x.

  C     C/E   C/F
|-----|-----|-----|----|
|--3--|--3--|--3--|--3-|
|--0--|--0--|--0--|--0-|
|--0--|--0--|--0--|--0-|
|--2--|--2--|--3--|--3-|
|--3--|-----|-----|----|


Bridge (“I’m ready...”, strumming up + down now. Play each chord 8x, repeat line 2x)

   D    D/F#                    
|-----|-----|
|--3--|--3--|
|--3--|--3--|
|--3--|--3--|
|--0--|--4--|
|-----|-----|


End Sequence (this just goes back and forth between the original two lines, strum 
or pick out as you feel)
  C                     C/E                     C/F
|-----------------|------------------|--------------0--------------|
|-------3------3--|--------3------3--|--------3------------3-------|
|----0-----0------|----0------0------|----0-----0-----0------0---0-|
|------0-----0----|------0------0----|-----------------------------|
|-----------------|--2---------------|--3---3-----3------3-----3---|
|--3--------------|------------------|-----------------------------|x2

  C/Am              C                 C/F
|-----------------|--------0--------|--------0--------------------|
|-------3------3--|----------3---3--|--------------3------3-------|
|----0-----0------|----0------------|----0-----0-----0------0---0-|
|------2-----0----|------0-----0----|-----------------------------|
|-----------------|-----------------|--3---3-----3------3-----3---|
|--0--------------|--3--------------|-----------------------------|x2

Outro (the very last “I’m been roaming…”; it’s picked)
  C                     C/E                     C/F
|-----------------|------------------|--------------0------------|
|-------3------3--|--------3------3--|--------3------------3-----|
|----0-----0------|----0------0------|----0-----0-----0------0---|
|------0-----0----|------0------0----|---------------------------|
|-----------------|--2---------------|--3---3-----3------3-----3-|
|--3--------------|------------------|---------------------------|
Tap to rate this tab
# A B C D E F G H I J K L M N O P Q R S T U V W X Y Z