Song name
# A B C D E F G H I J K L M N O P Q R S T U V W X Y Z

Tysen - Hold My Breath tab

holyfield formally tysen
i know them as tysen so either

I Beleive They Use Drop D 
But It Doesn't Really Matter With This Part I Have

p pull off
/ slide

          
e|---0-0-0-0-0--0-0-0-0-0-------------------| 
B|---4/5-5p4p0--4/5-5p4p0-------------------|
G|------------------------------------------| 2x
D|------------------------------------------|
A|------------------------------------------|
E|------------------------------------------|


e|---12-11-----------------------------------|
B|---------12/14-12-10-9-10-12---------------|
G|-------------------------------------------|2x i think
D|-------------------------------------------|
A|-------------------------------------------|
E|-------------------------------------------|

Tap to rate this tab
 
# A B C D E F G H I J K L M N O P Q R S T U V W X Y Z