Guitaretab - guitar tabs
Song name
# A B C D E F G H I J K L M N O P Q R S T U V W X Y Z

U-turn - Id Still Say Yes tab

Highlighted       Show chord diagrams
Title       : I'd Still say yes
Artist      : U-Turn
Album	    : By request		

Ear tabber  : Walter Michael De la Cruz 
E-mail add 1: Walterfdelacruz@yahoo.com
E-mail add 2: Michaelfdelacruz@yahoo.com 
Contact no  : 09224012464
School      : Saint Louis University, Baguio city
Time Elapsed: 7:23 PM - 7:35 PM
Date	    : December 1, 2005


-----------------
Capo on 1st fret |
-----------------

All chords relative to capo

0 open string
X Dead string

Chords used:

G	: 3XX23X
F	: 1XX23X
E/G	: 0XX23x	
E/D	: XX124X
D2	: XX0230	
Em	: 022030
Am7	: 002010	
D9	: XX0210	
Bm	: X2X23X



Intro:

e|-------------------------------------|
B|---------3---3-----------------------|
G|----2------2-------0----2------------|
D|-------------------------------------|  
A|-------------------------------------|
E|--3---3---------3-----3--------------|

e|-------------------------------------|
B|---------3---3-----------------------|
G|----2------2-------0----2------------|
D|-------------------------------------|  
A|-------------------------------------|
E|--1---1---------1-----1--------------|

e|-------------------------------------|
B|---------3---3-----------------------|
G|----2------2-------0----2------------|
D|-------------------------------------|  
A|-------------------------------------|
E|--0---0---------0-----0--------------|


e|-------------------------------------|
B|-------4----3------------------------|
G|----2--------------------------------|
D|--1---------0------------------------|  
A|-------------------------------------|
E|-------------------------------------|


Verse 1:

G              F
 I love you most

                    E/G
When we share a phase 

                  E/D       D2 
Of special good times together

G                  Em                   Am7      D9
  It seems like our love can't get much better (No....)


Verse 2:

G                  F                 E/G
  Coz we were as  close as two could be

                   E/D       D2
' knew love could last forever
 
G                       Em
  We're more than just lovers

       Am7       D9
We're good friends


Refrain I:

         F                                     
And even if our love could drift away

G
I wouldn't even think twice
[ Tab from: http://www.guitaretab.com/u/u-turn/66719.html ]
        Am7              D9
If I wanted love back again


Chorus:


               G      Bm      Am7    D9
Because I'd still say yes to you again

        Bm       Em          Am7   D9
My Darlin' for you, I do it all again

           
           G      Bm      Am7    D9
Yes I'd still say yes to you again

     Bm       Em          Am7      D9      
Darlin' for you, I do it over and over again 

 (Say yes..oh-oh)  



interlude:

G-Bm-Am7-D9-Bm-Em-Am7-D9


Verse 3: Do verse 1 chords

Where does it go
How does it end
True love it seems so easy
'Coz we have no doubts 
Where we belong

Refrain II: (Do refrain 1 chords)


They say time can heal a broken heart
And true love never ends
So why not start where we begin


Chorus:


               G      Bm      Am7    D9
Because I'd still say yes to you again

        Bm       Em          Am7   D9
My Darlin' for you, I do it all again

           
           G      Bm      Am7    D9
Yes I'd still say yes to you again

     Bm       Em          Am7      D9     
Darlin' for you, I do it over and over again 


G    Bm
SAy yes
            Am7   D9
Say yes to me baby


Refrain II: (Do refrain 1 chords)


They say time can heal a broken heart
And true love never ends
So why not start where we begin


Chorus:


               G      Bm      Am7    D9
Because I'd still say yes to you again

        Bm       Em          Am7   D9
My Darlin' for you, I do it all again

           
           G      Bm      Am7    D9
Yes I'd still say yes to you again

     Bm       Em          Am7      D9     
Darlin' for you, I do it over and over again 




Coda: G-Bm-Am7-D9-Bm-Em-Am7-D9

Over and over...
Say yes...say yes to me baby...

Say yes to you again
My Darlin' for you, I do it over and over again.
Say yes. 




For comments send me a message in Friendster. 

E-mail add 1: Walterfdelacruz@yahoo.com
E-mail add 2: Michaelfdelacruz@yahoo.com 

And u Can also add me as your friend Or send me a testimonial.hehehe
God bless!
Related for Id Still Say Yes tab
Advertisement will be closed in 10 seconds