Song name
# A B C D E F G H I J K L M N O P Q R S T U V W X Y Z

U2 - Vertiga tab

During the "Jesus round her neck" part
Lates version shows the partial harmonics. This whole section is harmonics like so:
E|---12H------------------12H-------------------------------|
B|-------12H----12H--12H-------12H----12H--12H--------------|
G|------------7H---7H---------------7H---7H-----------------|
D|----------------------------------------------------------|
A|----------------------------------------------------------|
E|----------------------------------------------------------|x3

The lead is off as well. The first part is chords. I'm not 100% positive on this but it 
as close as I've found and we play it in our band with no complaints.

E|---12-12-12----12-12-12----7--7--7--7----7--7--7----------|
B|---10-10--9-----9--9--9----9--9--9--9----7--7--7----------|
G|----9--9--9-----9--9--9----7--7--7--7----9--9--9----------|
D|----9--9--9-----9--9--9----9--9--9--9----7--7--7----------|
A|----------------------------------------------------------|
E|----------------------------------------------------------|x4

All of this, all this can be yours...
E|-------19----------17----------19----------19----------15-|
B|----17----------17----------17----------17----------15----|
G|-19----------19----------19----------19----------16-------|
D|----------------------------------------------------------|
A|----------------------------------------------------------|
E|----------------------------------------------------------|

The basic chord structures are right in some previous versions so I won't tab them again.

Have fun!
PG Hammer
Tap to rate this tab
# A B C D E F G H I J K L M N O P Q R S T U V W X Y Z