Song name
# A B C D E F G H I J K L M N O P Q R S T U V W X Y Z

U2 - One Live tab

"ONE" (Live Popmart Mexico City)
Tabbed by John Couillard
Tune down 1/2 a step

INTRO: I THINK EDGE PLAYS IT LIKE 8X BEFORE BONO STARTS TO SING
E--------------------------------------------------------|
B--------------5-5---------------------------------------|
G--------------7-5h7p5h7---------------------------------|
D-----------------------------------------12-10h12p10h12-|
A-----------------------------------------12-10h12p10h12-|
E-----1/5-----------------------3/10---------------------|


E----------------(FAST)----------------------------------|
B------3-1h3p1h3--1h3p1-1/3------------------------------|
G------2-2--------2-----2/4--5h4p5h4---------------------|
D-0-3-------------------3/5--5h5p5h5---------------------|SLIDE TO BEGINNING
A--------------------------------------------------------|
E--------------------------------------------------------|

"WELL ITS TOO LATE" PART : 2X

E-------------------------------------------------------|
B-------5-3h5p3h5------------------5-3h5p3h5------------|
G-------5-5------------------------5-5------------------|  PART A
D-------------------------------------------------------|
A---3--------------------3-2-0--------------------------|
E-------------------------------------------------------|


E-------------------------------------------------------|
B--------5-3h5p3h5-----------------5-3h5p3h5------------|
G--------5-5-----------------------5-5------------------|
D---3---------------------------------------------------|
A---------------------------3---------------------------|
E-------------------------------------------------------|


"HAVE U COME HERE FOR FORGIVENESS " PART 3X
W/LITTLE DISTORTION
(LISTEN FOR HOW MANY TIMES TO MUTE BEFORE HITTING NOTES)
E-----------------------------------------------------------|
B-----------------------------------------------------------| PART B
G-X--X--7--5--X--X--7--5--X--X--X--X--X--X--X--X------------|
D-X--X--7--5--X--X--7--5--X--X--3--3--X--X--5--5------------| THEN REPEAT
A-X--X--X--X--X--X--X--X--X--X--3--3--X--X--5--5--3-3h5p3---|
E-X--X--X--X--X--X--X--X--X--X--X--X--X--X--X--X-5--------5-|


THEN PART A...2X

THEN MINI SOLO: ECHO LITTLE DISTORTION
(LET ECHO RING AFTER 9     11    10    12)
G--12-12--9--------11--------10----------12---------

THEN  PART B 2X

THEN PART A 2X

THEN AFTER PART A PLAY AGAIN BUT ITS CHANGED ALITTLE BIT
(PLAY ONCE)
E--------------------------------------------------------|
B-----5-3h5h3h5------------------------------------------|
G-----5-5------------------------------------------------|
D--------------------------------------------------------|
A--3--------------3-2-0----0-2-3----3-2-0----0-2-3-------|
E--------------------------------------------------------|

THEN THIS PART (I ALWAYS PLAY THIS PART DIFFERENTLY JUST
ARPEGGIEATE AND STRUM THE WAY U WANT OR U THINK U HEAR IT..
BUT ITS THE RIGHT CHORDS...

E--1/3--3-----3--------3-----3-------3\1---1-----1------1---1----1------|
B--1/3--3-------3------3-------3-----3\1---1-------1----1---1------1----|
G--2/4--4-4h5-----5P4--4-4h5-----5p4-4\2h3-3-2h3----3p2-2h3-3-2h3---3p2-|
D-----------------------------------------------------------------------|
A-----------------------------------------------------------------------|
E-----------------------------------------------------------------------|
THEN
PART RIGHT AFTER "WHEN ALL U GOT IS HURT"

E-12-12-12-12-12-12-12-12-13-12-| LISTEN FOR HOW MANY TIMES THIS IS PLAYED
B-13-13-13-13-13-13-13-13-13-13-|
G-12-12-12-12-12-12-12-12-12-12-|
D-------------------------------|
A-------------------------------|
E-------------------------------|

IMMEDIATELY AFTER PLAY THIS:

E---------12~~-----------------  LISTEN FOR THIS E----12-13-12-----|
B--15~~----------15~~-----13~~-                  B-15----------13--|
G------------------------------------------------------------------|
D------------------------------------------------------------------|
A------------------------------------------------------------------|
E------------------------------------------------------------------|

PLAY THIS

E-------15-------15 REPEAT MANY TIMES E-15-15-15-15-| AND CONTINUE
B-12-13-13-12-13-13 PLAY THIS:        B-13-12-13-13-| RIFF BEFORE
G-------12-------12                   G-12-12-14-12-|
D------------------                   D-------------|
A------------------                   A-------------|
E------------------                   E-------------|

AGAIN LISTEN FOR THE CHANGES I CAN ONLY TYPE SO MUCH :O)
 THEN END SONG  WITH:

E--------12~~--------------   THEN   E---12-13-13----|
B--15~~---------15~~---13~~          B-15---------13-|

END WITH B--13h15P13

jcouillard@gmail.com
Tap to rate this tab
# A B C D E F G H I J K L M N O P Q R S T U V W X Y Z