Song name
# A B C D E F G H I J K L M N O P Q R S T U V W X Y Z

U2 - One Step Closer tab

U2
One Step Closer

Intro

(:23)	   (:32)
A          E   A    E   A    G#m     F#m     E
-5--------------5--------5-------4-------2-------------|
--5---------5----5---5----5-----4-4-4---2-2-2-----5----|
---6---------4----6---4----6---4---4---2---2----4------|
--------------2--------2------6-------4-------2--------|
-------------------------------------------------------|
-------------------------------------------------------|

Verse I

A	         E		             A
  I'm 'round the corner from anything that's real
		E		A
I'm across the road from hope
	    G#m
I'm under a bridge in a rip tide
	F#m			  E
That's taken everything I call my own


(Fill 1) (1:14)
------------------|
-----5---4-5------|
---4---4----------|
-2----------------|
------------------|
------------------|


Chorus (Intro Riffs)

A		      E
One step closer to knowing

A		      E
One step closer to knowing


Verse II

A	    E	                  A
  I'm on an island at a busy intersection
	   E                     A
I can't go forward, I can't turn back
              G#m
Can't see the future
		       F#m
It's getting away from me
			     E
I just watch the tail lights glowing


Chorus

A		      E
One step closer to knowing

A		      E
One step closer to knowing

A		      G#m
One step closer to knowing

   F#m	    E
Knowing, knowing


Break (2:10)
--------------------------------------------|
-10-9-7-----10-9-7-----10-9-7---------------|
--------9----------9----------9----9----9---|
----------9----------9----------9--9h11-----|
--------------------------------------------|
--------------------------------------------|

Verse III

A		     E
  I'm hanging out to dry
                    A
With my old clothes
	     E				  A
Finger still red with the prick of an old rose
		    G#m
Well the heart that hurts
		     F#m
Is a heart that beats
                         E
Can you hear the drummer slowing?


(Fill 1) (2:51)


Chorus

A		      E
One step closer to knowing

A		      E
One step closer to knowing

A		      G#m
One step closer to knowing

   F#m	    E
Knowing, knowing

A		      E
One step closer to knowing

A		      E
One step closer to knowing

A		      G#m
One step closer to knowing

   F#m	    E
Knowing, knowing


    EADGBe
E   00245x
A   577655
F#m 244222
G#m 466444

Yost with the Most
Tap to rate this tab
 
# A B C D E F G H I J K L M N O P Q R S T U V W X Y Z