Song name
# A B C D E F G H I J K L M N O P Q R S T U V W X Y Z

U2 - Helter Skelter tab

Help us improve GuitareTab! Take a short survey!
U2
Helter Skelter
Rattle and Hum
^=bend string eg. 10^=bend at 10th fret
/=slide up, eg. 7/10=slide from 7th to 10th fret
NOTE:on the record it sound 1/2 step lower , but on the DVD it's in standard tuning

"This is the song Charles Manson stole from the Beatles, we're stealing it back."

     "when u get to the bottom u go back to the top of the

-0-0-0-0-0-0-0-0-0-0-0-0-0-0-0-0-0-0-0-0-0-0-0-0-0-0-0-0-0-|
-3-3-3-3-3-3-3-3-3-3-3-3-3-3-3-3-3-3-3-3-3-3-3-3-3-3-3-3-3-|
-----------------------------------------------------------|
-----------------------------------------------------------|
-----------------------------------------------------------|
-----------------------------------------------------------|

slide then u stop and u turn and u go for a ride then u get to the bottom

-0-0-0-0-0-0-0-0-0-0-0-0-0-0-0-0-0-0-0-0-0-0-0-0-0-0-0-0-0-0-0-0-0-0-0-0-|
-2-2-2-2-2-2-2-2-2-2-2-2-2-2-2-2-2-2-2-2-2-2-1-1-1-1-1-1-1-1-1-1-1-1-1-1-|
-------------------------------------------------------------------------|
-------------------------------------------------------------------------|
-------------------------------------------------------------------------|
-------------------------------------------------------------------------|

                   G       E
then u see me again!      yeeeeeaahh!
-0-0-0-------------333-33---0-0-0-00-0-0-0-------|
-1-1-1-0-----------000-00---0-0-0-00-0-0-0-------|
---------0---------000-00---1-1-1-11-1-1-1-------|
-----------0-------000-00---2-2-2-22-2-2-2-------|
-------------2-----222-22---2-2-2-22-2-2-2-------|
---------------3---333-33---0-0-0-00-0-0-0-------|

E
                                (yeah)
do ya dont ya want me to love you

E
                                    (yeah)
comin' down fast I'm rockin above you

G

tell me tell me tell me the answer,

A(strum once)

ain't no lover but you ain't no dancer


                  helter skelter
----0-0-00-0-000-------------------------------|
-2--0-0-00-0-000---2-2--2--22------------------|
-2--1-1-11-1-111---2-2--2--22---0--------------|
-2--2-2-22-2-222---2-2--2--22------4-2-0-------|
-0--2-2-22-2-222---0-0--0--00------------4-2-0-|
----0-0-00-0-000-------------------------------|

 helter skelter                   helter skelter

-0--0--00--0-00---------------------------------------------------|
-0--0--00--0-00-------------------2--2--22--222-------------------|
-1--1--11--1-11-------------------2--2--22--222---0---------------|
-2--2--22--2-22--0----------------2--2--22--222-----4-2-0---------|
-2--2--22--2-22----4-2-0----------0--0--00--000-----------4-2-0---|
-0--0--00--0-00----------4-2-0------------------------------------|


 ooooooooh

-0---------|
-0---------|
-1---------|
-2---------|
-2---------|
-0---------|


E
                                (yeah)
do ya dont ya want me to make you

E
                                            (yeah)
I'm comin' down fast now dont let me break you

G

tell me tell me tell me the answer,

A(strum once)

ain't no lover but u ain't no dancer

(this chorus is the same as the last one)


helter skelter  helter skelter

helter skelter  helter skelter

ooooooooohh

(solo)

-0--00--x-x/-----------12-----12---------|
-0--00--x-x/------15^----15^----15^------|
-1--11--x-x/-----------------------------|
-2--22--x-x/-----------------------------|
-2--22--x-x/-----------------------------|
-0--00--x-x/-----------------------------|

------------------10-----10---------------|
-2--22--0-0---10^----10^----10^-----------|
-2--22--0-0-------------------------------|
-2--22--0-0-------------------------------|
-0--00--0-0-------------------------------|
------------------------------------------|

-0--00---x-x/-------15------15------------|
-0--00---x-x/---15^-----15^----15^--------|
-1--11---x-x/-----------------------------|
-2--22---x-x/-----------------------------|
-2--22---x-x/-----------------------------|
-0--00---x-x/-----------------------------|

--------------------10------10--------0----|
--2--22--0-0----10^----`10^-----10^---0----|
--2--22--0-0--------------------------1----|
--2--22--0-0--------------------------2----|
--0--00--0-0--------------------------2----|
--------------------------------------0----|


REPEAT INTRO

E
                               (yeah)
do ya dont ya want me to love you

E
                                   (yeah)
comin down fast I'm rockin above you

G

tell me tell me tell me the answer,

A(strum once)

ain't no lover but you ain't no dancer

(Same as 1st and 2nd chorus)

helter skelter, helter skelter

helter skelter, helter skelter

ooooooohhh,    and again!

helter skelter, helter skelter

helter skelter, helter skelter,
E                    E
oooooooooooooooohhh


I have tabbed this song in the correct order.
by Chris Gibson,
Related for Helter Skelter tab