Guitaretab - guitar tabs
Song name
# A B C D E F G H I J K L M N O P Q R S T U V W X Y Z
Home / U / U2 / Salome tab

U2 - Salome tab

Salome was one of the songs from the famous "Achtung Baby" demo tape, wich was stolen 
the sessions.
The song has two versions - "Salome" - a finished version from "Even Better Than The 
Thing" single B side and "High As A Kite" - raw, mixed material from the demo tape.
As many people already know, "Salome" later became "Zoo Station". These songs have a 
similar bass line and almost identical percussions.
This tab is based on the "High As A Kite" version. The main difference between these 
is that "High As A Kite" has more riffs, more solo's and it is much longer.

There is a bass tab in the site available too.

The song is in A

Intro:
(This funky riff is played throughout the song)
      A6                      A6/G#6
e|----12-12-12-12-12-12-12-12-12--11--12-------|
B|----12-12-12-12-12-12-12-12-12--11--12-------|
G|----12-12-12-12-12-12-12-12-12--11--12-------|
D|----11-11-11-11-11-11-11-11-12--10--11-------|
A|---------------------------------------------|
E|---------------------------------------------|

at around 1:17
Power chords for the chorus
     G5     A5
e|------------------|
B|------------------|
G|------------------|
D|---5--5--7--7-----|
A|---5--5--7--7-----|
E|---3--3--5--5-----|

1:25
      G5     D5
e|------------------|
B|------------------|
G|---------7--7-----|
D|---5--5--7--7-----|
A|---5--5--5--5-----|
E|---3--3-----------|

2:04
This is a nice, catchy riff wich is not played in the single B side version.
e|------------------------------------------------------------------------|
B|------------------------------------------------------------------------|
G|-------------------------0---0----------------------------------0---0---|
D|----------------------2----2----4--0---0--0--0---------------2----2---4-|
A|---5--5--5--3--2--0------------------------------3--2---0---------------|
E|------------------------------------------------------------------------|

For the bridge play these chords:
   F5       E5  F5 E5   G5
e|----------------------------------|--------------------------------|
B|----------------------------------|--------------------------------|
G|----------------------------------|--------------------------------|
D|----------------------------------|--------------------------------|
A|--3-----3-----3-------5-5---------|---5-----3-----3-----3------5---|
E|--1-----1--0--1---0---3-3---------|---3--0--1-----1--0--1--0---3---|

Solo

2X
e|--5-5-5-5-5-5-5-5-5-5-5-5-5-5-5-5--5--3--5---|
B|--5-5-5-5-5-5-5-5-5-5-5-5-5-5-5-5--5--5--5---|
G|---------------------------------------------|
D|---------------------------------------------|
A|---------------------------------------------|
E|---------------------------------------------|

e|-8/-9--5-----8/-9--8/-9--8/-9--8//9--5----|
B|-9/10--5-----9/10--9/10--9/10--9/10--5----|
G|------------------------------------------|
D|------------------------------------------|
A|------------------------------------------|
E|------------------------------------------|

e|-5-5-8-5---5------------------------------------------|
B|-5-5-----8---8-5---3--5--3----------------------------|
G|---------------------------5--2--2h4--4^---2-2h4--4^--|
D|------------------------------------------------------|
A|------------------------------------------------------|
E|------------------------------------------------------|
[ Tab from: http://www.guitaretab.com/u/u2/161225.html ]
e|-----------------------------|
B|-----------------------------|
G|-2--2h4/8^ 7p5---------------|
D|---------------9---7-5-7-----|
A|-----------------------------|
E|-----------------------------|

This is the 2nd part of the solo that starts at 4:26 before the 1st part ends
e|----------------------------------------------------------------------|
B|--3-5-5--3-5-5--3-5-5-3-5-5-/-12^ 10----10----------------------------|
G|-------------------------------------12----12-9--7-9-7--5^------------|
D|-----------------------------------------------------------7--5--7----|
A|----------------------------------------------------------------------|
E|----------------------------------------------------------------------|

2X
e|---------------------------------|
B|-3-5-5-3-5-5--3-5-5-3-5-5-/-7-5--|
G|---------------------------------|
D|---------------------------------|
A|---------------------------------|
E|---------------------------------|

e|-----------------------------------------------------------------------|
B|-7-8-8--7-8-8-7-8-8-7-8-8-/-10-8-10--10/-12--10--12/13--12--12/15---13-|
G|-----------------------------------------------------------------------|
D|-----------------------------------------------------------------------|
A|-----------------------------------------------------------------------|
E|-----------------------------------------------------------------------|

e|-----------------------16-16--16-16--16-16-----------------------------|
B|-13/17--15--15/19--17-----------------------5-5-5--5-------------------|
G|--------------------------------------------7-7-7--7-5-4-2-------------|
D|-----------------------------------------------------------------------|
A|-----------------------------------------------------------------------|
E|-----------------------------------------------------------------------|

These muted notes are similar to the ones from "Zoo Station"
e|---------------------------------------------------------|
B|---------------------------------------------------------|
G|---------------------------------------------------------|
D|---------------------------------------------------------|
A|----------------------------3h5--------------------------|
E|--(5)-x-x-x-(5)-(5)-x-x-x-x-----(5)-x-x-x-x--------------|

Baby please
Baby please don't go
I got lies to feed
They want skin and seed
And don't make me crawl

Please
Baby don't bite your lip
Give you half what I got
If you untie the knot
It's a promise

Salome...salome
Shake it shake it shake it salome
Shake it shake it shake it salome
Salome...shake it shake it shake it salome

Baby please
Baby what's that tune
Well I heard it before
When I crawled from your door
And my blood turned blue

Please
Baby please slow down
Baby I feel sick
Don't make me stick to my promise

Salome...salome
Shake it shake it shake it salome
Shake it shake it shake it salome
Salome...shake it shake it shake it salome
Salome...shake it shake it shake it salome

Baby please
Baby don't say no
Won't you dance for me
Under the cherry tree
Won't you swing down low

Please
Baby please say yes
Baby don't go away
You're spilling me
And your precious love

Salome...salome
Shake it shake it shake it salome
Shake it shake it shake it salome
Salome...shake it shake it shake it salome
Salome...shake it shake it shake it salome
Salome...shake it shake it shake it salome
Related for Salome tab
Advertisement will be closed in 10 seconds