Song name
# A B C D E F G H I J K L M N O P Q R S T U V W X Y Z

U2 - Rejoice tab

Help us improve GuitareTab! Take a short survey!
Track 4 on the 1981 October album.

Regular tuning.

Enjoy!

   ------11------------11--------------9--11--9---|
   --9-9----9-12---9-9----9-12----9-12----------9-|
   -----------------------------------------------|
   -----------------------------------------------|
   -----------------------------------------------|
   -----------------------------------------------|

   ------11------------11---------------14-9------|
   --9-9----9-12---9-9----9-12----9-12------9-----|
   -----------------------------------------------|
   -----------------------------------------------|
   -----------------------------------------------|
   -----------------------------------------------|
Related for Rejoice tab