Song name
# A B C D E F G H I J K L M N O P Q R S T U V W X Y Z

U2 - Get On Your Boots tab

Main Riff:
G|----------------------------------------|
D|----------------------------------------|
A|-5-3---0-3-0-5------3---3----3----------|
E|----------------------5---------5-3-3---|


Chorus:
G|------------------------------------
D|------------------------------------
A|------------------------------------
E|-3-3-3-3-3-3-3-3-3-4-4-4-4-4-4-4-4--

G|------------------------------------
D|------------------------------------
A|------------------------------------
E|-3-3-3-3-3-3-3-3-3-4-4-4-4-4-4-4-4--

G|------------------------------------
D|------------------------------------
A|------------------------------------
E|-3-3-3-3-3-3-3-3-3-6-6-6-6-6-6-6-6--

G|------------------------------------
D|------------------------------------
A|------------------6-6-6-6-6-6-6-6-6-
E|-3-3-3-3-3-3-3-3-3------------------

G|------------------
D|------------------
A|-8-8-8-8-8-8-8-8--
E|------------------


Thats my first tab, i hope you will enjoy it :) Pretty, easy song, have fun ! Greetings, langov ;)
Tap to rate this tab
# A B C D E F G H I J K L M N O P Q R S T U V W X Y Z