Song name
# A B C D E F G H I J K L M N O P Q R S T U V W X Y Z

U2 - Breathe tab

------------------------------------------------------------------------------
			     Breathe - U2
------------------------------------------------------------------------------
Tabbed by: Harry Blunt

Tuning: Standard

Intro:
   Bm (Hold)
e|-7-------------------------------------------------------------------------|
B|-7-------------------------------------------------------------------------|
G|-4-------------------------------------------------------------------------|
D|---------------------------------------------------------------------------|
A|---------------------------------------------------------------------------|
E|---------------------------------------------------------------------------|

   D  A   A A A A A Bm Bm A  Bm Bm A  Bm Bm A  Bm Bm A
e|-2-------------------------------------------------------------------------|
B|-3-------------------------------------------------------------------------|
G|-2--2---2-2-2-2-2-4--4--2--4--4--2--4--4--2--4--4--2-----------------------|
D|-0--2---2-2-2-2-2-4--4--2--4--4--2--4--4--2--4--4--2-----------------------|
A|----0---0-0-0-0-0-2--2--0--2--2--0--2--2--0--2--2--0-----------------------|
E|---------------------------------------------------------------------------|

e|-2-------------------------------------------------------------------------|
B|-3-------------------------------------------------------------------------|
G|-2--2---2-2-2-2-2-4--4--2--4--4--2--4--4--2--4--4--2-----------------------|
D|-0--2---2-2-2-2-2-4--4--2--4--4--2--4--4--2--4--4--2-----------------------|
A|----0---0-0-0-0-0-2--2--0--2--2--0--2--2--0--2--2--0-----------------------|
E|---------------------------------------------------------------------------|


Verse:

16th of June, nine 0 five, door bell rings
Man at the door says if I want to stay alive a bit longer
e|-2-------------------------------------------------------------------------|
B|-3-------------------------------------------------------------------------|
G|-2--2---2-2-2-2-2-4--4--2--4--4--2--4--4--2--4--4--2-----------------------|
D|-0--2---2-2-2-2-2-4--4--2--4--4--2--4--4--2--4--4--2-----------------------|
A|----0---0-0-0-0-0-2--2--0--2--2--0--2--2--0--2--2--0-----------------------|
E|---------------------------------------------------------------------------|

       There's a few things I need you to know. Three
e|-2-------------------------------------------------------------------------|
B|-3-------------------------------------------------------------------------|
G|-2--2---2-2-2-2-2-4--4--2--4--4--2--4--4--2--4--4--2-----------------------|
D|-0--2---2-2-2-2-2-4--4--2--4--4--2--4--4--2--4--4--2-----------------------|
A|----0---0-0-0-0-0-2--2--0--2--2--0--2--2--0--2--2--0-----------------------|
E|---------------------------------------------------------------------------|

Coming from a long line of travelling sales people on my mother's side
I wasn't gonna buy just anyone's cockatoo
e|-2-------------------------------------------------------------------------|
B|-3-------------------------------------------------------------------------|
G|-2--2---2-2-2-2-2-4--4--2--4--4--2--4--4--2--4--4--2-----------------------|
D|-0--2---2-2-2-2-2-4--4--2--4--4--2--4--4--2--4--4--2-----------------------|
A|----0---0-0-0-0-0-2--2--0--2--2--0--2--2--0--2--2--0-----------------------|
E|---------------------------------------------------------------------------|

So why would I invite a complete stranger into my home
Would you?
e|-2-------------------------------------------------------------------------|
B|-3-------------------------------------------------------------------------|
G|-2--2---2-2-2-2-2-4--4--2--4--4--2--4--4--2--4--4--2-----------------------|
D|-0--2---2-2-2-2-2-4--4--2--4--4--2--4--4--2--4--4--2-----------------------|
A|----0---0-0-0-0-0-2--2--0--2--2--0--2--2--0--2--2--0-----------------------|
E|---------------------------------------------------------------------------|

These days are better than that
e|---------------------------------------------------------------------------|
B|---------------------------------------------------------------------------|
G|---11---9---11---11---9---11---11---9---11---11---9---11-------------------|
D|-9----9---9---------9---9---------9---9---------9---9----------------------|
A|---------------------------------------------------------------------------|
E|---------------------------------------------------------------------------|

These days are better than that
e|---------------------------------------------------------------------------|
B|---------------------------------------------------------------------------|
G|--11---9---11---11---9---11---11---9---11---11---9---11--------------------|
D|-----9---9---------9---9---------9---9---------9---9-----------------------|
A|---------------------------------------------------------------------------|
E|---------------------------------------------------------------------------|

Every day I die again, and again I'm reborn
e|---------------------------------------------------------------------------|
B|-----10-----10-----10-----10-----9-----9-----10-----9----------------------|
G|--11-----11-----11-----11-----11----11----12-----11------------------------|
D|---------------------------------------------------------------------------|
A|---------------------------------------------------------------------------|
E|---------------------------------------------------------------------------|

Every day I have to find the courage
e|---------------------------------------------------------------------------|
B|-----10-----10-----10-----10-----9-----9-----10-----9----------------------|
G|--11-----11-----11-----11-----11----11----12-----11------------------------|
D|---------------------------------------------------------------------------|
A|---------------------------------------------------------------------------|
E|---------------------------------------------------------------------------|


Chorus:

  To walk out into the street
e|-------10-------10-------10-------10-------10-------10-------10-------10---|
B|----10-------10-------10-------10-------10-------10-------12-------12------|
G|-11-------11-------12-------12-------11-------11-------11-------11---------|
D|---------------------------------------------------------------------------|
A|---------------------------------------------------------------------------|
E|---------------------------------------------------------------------------|

With arms out got a love you can't defeat
e|-------10-------10-------10-------10-------10-------10-------10-------10---|
B|----10-------10-------10-------10-------10-------10-------12-------12------|
G|-11-------11-------12-------12-------11-------11-------11-------11---------|
D|---------------------------------------------------------------------------|
A|---------------------------------------------------------------------------|
E|---------------------------------------------------------------------------|

Neither down or out, There's nothing you have that I need
e|-------10-------10-------10-------10-------10-------10-------10-------10---|
B|----10-------10-------10-------10-------10-------10-------12-------12------|
G|-11-------11-------12-------12-------11-------11-------11-------11---------|
D|---------------------------------------------------------------------------|
A|---------------------------------------------------------------------------|
E|---------------------------------------------------------------------------|

I can breathe
e|-2-2-2-5-5-5-7-7-7-10-10-10-9-9-9-5-5-5-2-2-2-0-0-0------------------------|
B|---------------------------------------------------------------------------|
G|---------------------------------------------------------------------------|
D|---------------------------------------------------------------------------|
A|---------------------------------------------------------------------------|
E|---------------------------------------------------------------------------|

Breathe now
e|-2-2-2-5-5-5-7-7-7-10-10-10-9-9-9-5-5-5-2-2-2-0-0-0------------------------|
B|---------------------------------------------------------------------------|
G|---------------------------------------------------------------------------|
D|---------------------------------------------------------------------------|
A|---------------------------------------------------------------------------|
E|---------------------------------------------------------------------------|


Verse:

16th of June, Chinese stocks are going up
And I'm coming down with some new Asian virus
e|-2-------------------------------------------------------------------------|
B|-3-------------------------------------------------------------------------|
G|-2--2-----11---9---11---11---9---11----------------------------------------|
D|-0--2---9----9---9---------9---9-------------------------------------------|
A|----0----------------------------------------------------------------------|
E|---------------------------------------------------------------------------|

Ju Ju man, Ju Ju man
Doc says you're fine, or dying
e|-2-------------------------------------------------------------------------|
B|-3-------------------------------------------------------------------------|
G|-2--2-----11---9---11---11---9---11----------------------------------------|
D|-0--2---9----9---9---------9---9-------------------------------------------|
A|----0----------------------------------------------------------------------|
E|---------------------------------------------------------------------------|

Please
Nine 0 nine, St John Divine, on the line, my pulse is fine
e|-2-------------------------------------------------------------------------|
B|-3-------------------------------------------------------------------------|
G|-2--2---2-2-2-2-2-4--4--2--4--4--2--4--4--2--4--4--2-----------------------|
D|-0--2---2-2-2-2-2-4--4--2--4--4--2--4--4--2--4--4--2-----------------------|
A|----0---0-0-0-0-0-2--2--0--2--2--0--2--2--0--2--2--0-----------------------|
E|---------------------------------------------------------------------------|

But I'm running down the road like loose electricity
while the band in my head plays a striptease
e|-2-------------------------------------------------------------------------|
B|-3-------------------------------------------------------------------------|
G|-2--2-----11---9---11---11---9---11----------------------------------------|
D|-0--2---9----9---9---------9---9-------------------------------------------|
A|----0----------------------------------------------------------------------|
E|---------------------------------------------------------------------------|

The roar that lies on the other side of silence
e|---------------------------------------------------------------------------|
B|-----10-----10-----10-----10-----9-----9-----10-----9----------------------|
G|--11-----11-----11-----11-----11----11----12-----11------------------------|
D|---------------------------------------------------------------------------|
A|---------------------------------------------------------------------------|
E|---------------------------------------------------------------------------|

The forest fire that is fear so deny it
e|---------------------------------------------------------------------------|
B|-----10-----10-----10-----10-----9-----9-----10-----9----------------------|
G|--11-----11-----11-----11-----11----11----12-----11------------------------|
D|---------------------------------------------------------------------------|
A|---------------------------------------------------------------------------|
E|---------------------------------------------------------------------------|


Chorus:

  Walk out into the street
e|-------10-------10-------10-------10-------10-------10-------10-------10---|
B|----10-------10-------10-------10-------10-------10-------12-------12------|
G|-11-------11-------12-------12-------11-------11-------11-------11---------|
D|---------------------------------------------------------------------------|
A|---------------------------------------------------------------------------|
E|---------------------------------------------------------------------------|

Sing your heart out, The people we meet
e|-------10-------10-------10-------10-------10-------10-------10-------10---|
B|----10-------10-------10-------10-------10-------10-------12-------12------|
G|-11-------11-------12-------12-------11-------11-------11-------11---------|
D|---------------------------------------------------------------------------|
A|---------------------------------------------------------------------------|
E|---------------------------------------------------------------------------|

 Will not be drowned out, There's nothing you have that I need
e|-------10-------10-------10-------10-------10-------10-------10-------10---|
B|----10-------10-------10-------10-------10-------10-------12-------12------|
G|-11-------11-------12-------12-------11-------11-------11-------11---------|
D|---------------------------------------------------------------------------|
A|---------------------------------------------------------------------------|
E|---------------------------------------------------------------------------|

I can breathe
e|-2-2-2-5-5-5-7-7-7-10-10-10-9-9-9-5-5-5-2-2-2-0-0-0------------------------|
B|---------------------------------------------------------------------------|
G|---------------------------------------------------------------------------|
D|---------------------------------------------------------------------------|
A|---------------------------------------------------------------------------|
E|---------------------------------------------------------------------------|

Breathe now
e|-2-2-2-5-5-5-7-7-7-10-10-10-9-9-9-5-5-5-2-2-2-0-0-0------------------------|
B|---------------------------------------------------------------------------|
G|---------------------------------------------------------------------------|
D|---------------------------------------------------------------------------|
A|---------------------------------------------------------------------------|
E|---------------------------------------------------------------------------|


Bridge:

e|---------------------------------------------------------------------------|
B|-8-8-8-7-7-7-5-5-5-5-5-5-6-6-6-8-8-8-6-6-6-5-5-5---------------------------|
G|---------------------------------------------------------------------------|
D|---------------------------------------------------------------------------|
A|---------------------------------------------------------------------------|
E|---------------------------------------------------------------------------|

e|---------------------------------------------------------------------------|
B|-8-8-8-7-7-7-5-5-5-5-5-5-6-6-6-5-5-5-3-3-3-5-5-5-3-------------------------|
G|---------------------------------------------------------------------------|
D|---------------------------------------------------------------------------|
A|---------------------------------------------------------------------------|
E|---------------------------------------------------------------------------|


Solo:

e|----------------------------------------------------------------------------|
B|-5-5-5-7-7-7-10-10-12-15-15-14--17--15--14--17--15--14--17--15--14--17------|
G|----------------------------------------------------------------------------|
D|----------------------------------------------------------------------------|
A|----------------------------------------------------------------------------|
E|----------------------------------------------------------------------------|

e|----------------------------------------------------------------------------|
B|--14-15-17-14-15-17-14-15-17-14-15-17-14-15-17-14-15-17-14-15-17------------|
G|----------------------------------------------------------------------------|
D|----------------------------------------------------------------------------|
A|----------------------------------------------------------------------------|
E|----------------------------------------------------------------------------|

   We are people borne of sound, The songs are in our eyes
e|-------------19----17----17----17----17----17----19----17----17----17----17-|
B|-17/19-19-19----19----19----19----19----19----19----19----19----19----19----|
G|----------------------------------------------------------------------------|
D|----------------------------------------------------------------------------|
A|----------------------------------------------------------------------------|
E|----------------------------------------------------------------------------|

         Gonna wear them like a crown
e|----17---------------------------------------------------------------------|
B|-19----19-17-17-17-15-15-15-14-14-14-15-15-15-14-14-14-15-15-15------------|
G|---------------------------------------------------------------------------|
D|---------------------------------------------------------------------------|
A|---------------------------------------------------------------------------|
E|---------------------------------------------------------------------------|


Chorus:

  Walk out, into the sunburst street
e|-------10-------10-------10-------10-------10-------10-------10-------10---|
B|----10-------10-------10-------10-------10-------10-------12-------12------|
G|-11-------11-------12-------12-------11-------11-------11-------11---------|
D|---------------------------------------------------------------------------|
A|---------------------------------------------------------------------------|
E|---------------------------------------------------------------------------|

Sing your heart out, sing my heart out
e|-------10-------10-------10-------10-------10-------10-------10-------10---|
B|----10-------10-------10-------10-------10-------10-------12-------12------|
G|-11-------11-------12-------12-------11-------11-------11-------11---------|
D|---------------------------------------------------------------------------|
A|---------------------------------------------------------------------------|
E|---------------------------------------------------------------------------|

 I've found grace inside a sound, I found grace, it's all that I found
e|-------10-------10-------10-------10-------10-------10-------10-------10---|
B|----10-------10-------10-------10-------10-------10-------12-------12------|
G|-11-------11-------12-------12-------11-------11-------11-------11---------|
D|---------------------------------------------------------------------------|
A|---------------------------------------------------------------------------|
E|---------------------------------------------------------------------------|

And I can breathe
Guitar 1:
e|-2-------------------------------------------------------------------------|
B|-3-------------------------------------------------------------------------|
G|-2--2---2-2-2-2-2-4--4--2--4--4--2--4--4--2--4--4--2-----------------------|
D|-0--2---2-2-2-2-2-4--4--2--4--4--2--4--4--2--4--4--2-----------------------|
A|----0---0-0-0-0-0-2--2--0--2--2--0--2--2--0--2--2--0-----------------------|
E|---------------------------------------------------------------------------|
Guitar 2:
e|-2-2-2-5-5-5-7-7-7-10-10-10-9-9-9-5-5-5-2-2-2-0-0-0------------------------|
B|---------------------------------------------------------------------------|
G|---------------------------------------------------------------------------|
D|---------------------------------------------------------------------------|
A|---------------------------------------------------------------------------|
E|---------------------------------------------------------------------------|

Breathe now
Guitar 1:
e|-2-------------------------------------------------------------------------|
B|-3-------------------------------------------------------------------------|
G|-2--2---2-2-2-2-2-4--4--2--4--4--2--4--4--2--4--4--2-----------------------|
D|-0--2---2-2-2-2-2-4--4--2--4--4--2--4--4--2--4--4--2-----------------------|
A|----0---0-0-0-0-0-2--2--0--2--2--0--2--2--0--2--2--0-----------------------|
E|---------------------------------------------------------------------------|
Guitar 2:
e|-2-2-2-5-5-5-7-7-7-10-10-10-9-9-9-5-5-5-2-2-2-0-0-0------------------------|
B|---------------------------------------------------------------------------|
G|---------------------------------------------------------------------------|
D|---------------------------------------------------------------------------|
A|---------------------------------------------------------------------------|
E|---------------------------------------------------------------------------|


Outro:

e|---------------------------------------------------------------------------|
B|-8-8-8-7-7-7-5-5-5-5-5-5-6-6-6-8-8-8-6-6-6-5-5-5---------------------------|
G|---------------------------------------------------------------------------|
D|---------------------------------------------------------------------------|
A|---------------------------------------------------------------------------|
E|---------------------------------------------------------------------------|

e|---------------------------------------------------------------------------|
B|-8-8-8-7-7-7-5-5-5-5-5-5-6-6-6-5-5-5-3-3-3-5-5-5---------------------------|
G|---------------------------------------------------------------------------|
D|---------------------------------------------------------------------------|
A|---------------------------------------------------------------------------|
E|---------------------------------------------------------------------------|
e|---------------------------------------------------------------------------|
B|-8-8-8-7-7-7-5-5-5-5-5-5-6-6-6-8-8-8-6-6-6-5-5-5---------------------------|
G|---------------------------------------------------------------------------|
D|---------------------------------------------------------------------------|
A|---------------------------------------------------------------------------|
E|---------------------------------------------------------------------------|

e|-------------------------------------------------2-------------------------|
B|-8-8-8-7-7-7-5-5-5-5-5-5-6-6-6-5-5-5-3-3-3-5-5-5-3-------------------------|
G|-------------------------------------------------2-------------------------|
D|-------------------------------------------------0-------------------------|
A|---------------------------------------------------------------------------|
E|---------------------------------------------------------------------------|


===============================================================================
Tap to rate this tab
# A B C D E F G H I J K L M N O P Q R S T U V W X Y Z