Song name
# A B C D E F G H I J K L M N O P Q R S T U V W X Y Z

U2 - Stand Up Comedy tab

U2
Stand Up Comedy
No Line On The Horizon (2009)

Ok, this is a pretty easy song to play. It only took a couple of minutes to figure it 
During the solo if it says ''10fb10'', that means you  bend up to the 12th fret and 
it back to the 10th.


Intro Riff:
|-------------------------------------------|
|-------------------------------------------|
|-------------------------------------------|
|-----4----4-------2h4-----4----4-2-----2h4-|
|--------------2h4------------------2h4-----|
|-2-2----2---2---------2-2----2-------------|


Verse (Part 1)
|--------------------------------|
|--------------------------------|
|--------------------------------|
|-4-x-x-x-4-4-x-4--4-x-x-4-4-4-4-|
|-x-x-x-x-x-x-x-x--x-x-x-x-x-x-x-|
|-2-x-x-x-2-2-x-2--2-x-x-2-2-2-2-|


Verse (Part 2)
  D        Dbm              B
|-2--2-2-2-4--4-4-4-4-4-4-4-2--2-2-2-|
|-3--3-3-3-5--5-5-5-5-5-5-5-4--4-4-4-|
|-2--2-2-2-6--6-6-6-6-6-6-6-4--4-4-4-|
|-0--0-0-0-6--6-6-6-6-6-6-6-4--4-4-4-|
|----------4--4-4-4-4-4-4-4-2--2-2-2-|
|------------------------------------|


Chorus
|-9--9-7------7-----7-9--9-9-7-----7------12-11----12-11----------|
|---------7-9---9-7------------7-9---9-7--------12-------12-11-10-|
|-----------------------------------------------------------------|
|-----------------------------------------------------------------|
|-----------------------------------------------------------------|
|-----------------------------------------------------------------|


Solo
|-------------------------------------------------------|
|-10fb-12-10-10-8---------10fb-12-12-12-/10-10-8--------|
|-----------------11hb11-------------------------11hb11-|
|-------------------------------------------------------|
|-------------------------------------------------------|
|-------------------------------------------------------|

|---------------------------------------------|
|-10fb10--------------------------------------|
|--------11-11-9----------------------/9-10fb-|
|----------------12-12hb12-10-9-12-12---------|
|---------------------------------------------|
|---------------------------------------------|


After Solo
|---------------|
|---------------|
|---------------|
|---------------|
|-/11-------/11-|
|---------------|

Before Final Chorus
  A   B   Db
|-0---2---4--|
|-2---4---6--|
|-2---4---6--|
|-2---4---6--|
|-0---2---4--|
|------------|
Tap to rate this tab
 
# A B C D E F G H I J K L M N O P Q R S T U V W X Y Z