Song name
# A B C D E F G H I J K L M N O P Q R S T U V W X Y Z

U2 - All I Want Is You tab

Highlighted       Show chord diagrams
-------------------------------------------------------------------------------
			    ALL I WANT IS YOU - U2
-------------------------------------------------------------------------------
Tabbed by:  jo
Email:  jozunda@yahoo.com

tuning:  standard

listen for the strumming pattern - its easy :)

A           Asus4
you say you want

A	                    Asus4
diamonds on a ring of gold

A           Asus4
you say you want

A                    Asus4
your story to remain untold

F#m                  D
all the promises we make

F#m                     D
from the cradle to the grave


A           Asus4          
when all i want is you...


A - A5 - A - A5 - A - D - Dsus2 - D    x 2

this part looks something like this:

e|---0---0---0---0---0---0---0---2---2---2---0---0---2----|
B|---2---2---0---2---0---2---2---3---3---3---3---3---3----|
G|---2---2---2---2---2---2---2---2---2---2---2---2---2----|
D|---2---2---2---2---2---2---2---0---0---0---0---0---0----|
A|---0---0---0---0---0---0---0----------------------------|
E|--------------------------------------------------------|

then back to verse - the rest of the song follows the same pattern.

Tap to rate this tab
 
# A B C D E F G H I J K L M N O P Q R S T U V W X Y Z