Song name
# A B C D E F G H I J K L M N O P Q R S T U V W X Y Z

U2 - Rowenas Theme tab

-----------------------------------------------------------------------------
			  ROWENA’S THEME – U2 (THE EDGE)
-----------------------------------------------------------------------------
Tabbed by: olive14
Email: olive14@u2.com

Tuning: standard or ½ step down

e|--------------------------------------------------------------------------|
B|--------------------------------------------------------------------------|
G|---------------------------------------------0---------------0------------|
D|-----4-----4---------4-----4---------4-----4---4-----4-----4---4----------|
A|---5-----5-----5---5-----5-----5---5-----5---------5-----5----------------|
E|-7-----7-----7---5-----5-----5---3-----3---------3-----3------------------|

e|--------------------------------------------------------------------------|
B|--------------------------------------------------------------------------|
G|---------------------------------------------0---------------0------------|
D|-----4-----4---------4-----4---------4-----4---4-----4-----4---4----------|
A|---5-----5-----5---5-----5-----5---5-----5---------5-----5----------------|
E|-7-----7-----7---5-----5-----5---3-----3---------3-----3------------------|

e|---------0---------------0-----------------3------------------------------|
B|-------0---0-----------0---0-------------3---3-0--------------------------|
G|-----2-------2-------2-------2---------0-------------0--------------------|
D|---2-----------2---2-----------2-----0-----------------4-2-4-2-0----------|
A|-0---------------0-----------------2---------------2----------------------|
E|---------------------------------3---------------0------------------------|

e|---------0---------------0---------------------------3--------------------|
B|-------0---0-----------0---------------------------3---3-2----------------|
G|-----2-------2-------2---------0-----------------0------------------------|
D|---2-----------2---2-------------4-2-4-2-0-----0--------------------------|
A|-0---------------0-----------2---------------2----------------------------|
E|---------------------------0---------------3------------------------------|

Overdubs in harmonics (somewhere)
    + + + + + +  + + +  + + +
e|--------------------------------------------------------------------------|
B|-12-----------------------------------------------------------------------|
G|----7-----7---12-7---12---7-----------------------------------------------|
D|------4-----4------4----4-------------------------------------------------|
A|--------5-----------------------------------------------------------------|
E|--------------------------------------------------------------------------|

Hoping this can help…

If you’d like to get Edge’s sound, check this site:
http://www.amnesta.net/edge_delay/  Good luck with it.

| /  slide up
| \  slide down
| h  hammer-on
| p  pull-off
| ~  vibrato
| +  harmonic
| x  Mute note
=============================================================================
Tap to rate this tab
# A B C D E F G H I J K L M N O P Q R S T U V W X Y Z