Song name
# A B C D E F G H I J K L M N O P Q R S T U V W X Y Z

U2 - Still Havent Found tab

----------------------------------------------------------------------------
			     I still haven't found - U2
----------------------------------------------------------------------------
Fravis
Email:fravis@orange.nl

just the intro cause the whole song is further on already tabbed, lot's of
times.

You play it like some kind of an "C" chord; put your indexfinger on E4, your
middlefinger on B5, your ringfinger on D7, your pinky on G7...now, 
you now don't have to change anything as you play the verses!! good luck!   

e|-------------------------------------4------------------|
B|--------5--5-----5-----------5----------5---------------|
G|--------------------------------------------------------| 2x
D|--7-----------7----------7-------7----------------------|
A|----0----------------0----------------------------------|
E|--------------------------------------------------------|


e|----------------------------------4----------------------|
B|--------5--5-----5---------5--5-------5------------------|
G|--7------------------7-----------------------------------| 1x
D|----7---------7---------7--------------------------------|
A|---------------------------------------------------------|
E|---------------------------------------------------------|
Tap to rate this tab
# A B C D E F G H I J K L M N O P Q R S T U V W X Y Z