Song name
# A B C D E F G H I J K L M N O P Q R S T U V W X Y Z

U2 - Van Diemans Land tab

Help us improve GuitareTab! Take a short survey!
Van Dieman's Land by The Edge of U2
Tabbed by John Couillard
Tune down 1/2 a step

just after "hold me now"
  G                 C            G
e----------3--------------0-----------3----------------|
b--------3---3--------------1-----------3--------------|
g------0-------0--------------0-----------0------------|
d----0-------------------------------------------------|
a----------------2--3------------------------3-2-------|
e-3------------------------------3---------------3-2-0-|

  Em              C         D
e-------0-------------0-----------2-3-2------2------2---|
b---------0-------------1-------3--------3------3-----3-|
g----------0--------------0---2------------2------2-----|
d---2--------2--------------0---------------------------|
a-2------------2--3-------------------------------------|
e-------------------------------------------------------|

  Bm                              Em
e--------2--------------2----------------0---------|
b----------3--------------3----------------0-------|
g-----4-----4--------4------4---------0------0-----|
d---4--------4-----4----------4-----2----------2---|
a-2------------2-2--------------2-2--------------2-|
e--------------------------------------------------|

  C             G            D
e--------0-------------3-----------2---------|
b----------1---------3---3-------3---3-------|
g-----0------0-----0-------0---2-------2-----|
d---2------------------------0-----------0---|
a-3----------------------------------------0-|
e---------------3----------------------------|

  G
e--------3-------------3-----|
b------3---3-------------3---| and repeat this
g----0-------0-------------0-| sequence many times
a----------------------------|
d---------------3-2----------|
e-3--------------------------|

supadad915@yahoo.com
Related for Van Diemans Land tab