Song name
# A B C D E F G H I J K L M N O P Q R S T U V W X Y Z

U2 - Wake Up Dead Man tab

#


From x95cjk@juliet.stfx.ca Wed Apr 30 09:40:46 1997
Date: Sun, 30 Mar 1997 14:38:30 -0400
From: Shamu Naidu 
To: guitar@olga.net
Cc: acoustic@olga.net
Subject: Tab: Wake Up Dead Man by U2

    [The following text is in the "ISO-8859-1" character set]
    [Your display is set for the "US-ASCII" character set]
    [Some characters may be displayed incorrectly]

Wake Up Dead Man by U2
Lyrics and Music:U2
Tabbed by Shamu Naidu
E-mail:  x95cjk@stfx.ca

It's a relatively easy song for the rythem guitar part.  I've tabbed out
the progression of notes in the song.  If you listen to the song you can
listen to exactly how many times each part is played.

Verses:

--4------4--4---|--2------2--2---|--0------0--0---|------------------------|

------------------|------------------|-------------------|---------4----4--4
---|
------------------|------------------|-------------------|--2--1------------
----|
------------------|------------------|-------------------|------------------
------|
-----4----------4|-----2----------2|-----2----------2|-----------2---------2
|
-----4----------4|-----2----------2|-----0----------0|-----------0---------0
|

------------------|------------------|
--6------6--6---|--4------4--4---|
------------------|------------------|
-----4----------4|------------------|
-----4----------4|-----2----------2|
------------------|-----2----------2|

Chorus:

"Wake up, wake up dead man                              "    
G#m                       F#            step down       C#
-4-                           -2-             --7--6--           -4-
-6-                           -4-             ----------          -4-
-6-                           -4-             ----------          -6-
-4-                           -3-             ----------          -6-
-4-                           -2-             ----------          -6-
-4-                           -2-             ----------          ----

It sounds pretty good if you only got one guitar.
Tap to rate this tab
# A B C D E F G H I J K L M N O P Q R S T U V W X Y Z