Song name
# A B C D E F G H I J K L M N O P Q R S T U V W X Y Z

U2 - Pride In The Name Of Love tab

           PRIDE (IN THE NAME OF LOVE) DELAY SETTINGS AT BOTTOM

|-(12)-------------------------|
|-(12)-------------------------|
|-------------------(7)--------| X2
|---------(7)-------(7)--------|
|---------(7)------------------|
|------------------------------|
 VERSE
|------------------------------|
|-12-12-12-12-12-12-12-12------|
|-11-11-11-9--11-9--11-9-------| X2
|-9--9--9--9--9--9--9--9-------|
|------------------------------|
|------------------------------|

|------------------------------|
|-10-10-10-9-10-9-10-9---------|
|-9--9--9--9-9--9-9--9---------| X1    PLAY ALL THIS 8X
|-9--9--9--9-9--9-9--9---------|
|------------------------------|
|------------------------------|

|------------------------------|
|-10-10-10-9--10-9--10-9-------|
|-11-11-11-11-11-11-11-11------| X1
|-9--9--9--9--9--9--9--9-------|
|------------------------------|
|------------------------------|

   VERSE
|--------0-------------0-------|
|------------------------------|
|------8---8--------8----8-----| X2
|----9------------7------------|
|------------------------------|
|--7------------5--------------|

  SOLO
|-11h12h14-11h12h14-11h12h14---|
|----------------------------12|
|------------------------------| X8
|------------------------------|
|------------------------------|
|------------------------------|

BRIDGE
|---2--2--2--2--2-----------------0-|
|------------------2--2--2--2-------|
|-4--4--4--4--4--4--4--4--4--4------|
|-----------------------------------|
|-----------------------------------|
|-----------------------------------|

|--14--14--14--14--14---9---9---9---9-12-|
|-12--12--12--12--12--12--12--12--12-----|
|----------------------------------------|
|----------------------------------------|
|----------------------------------------|
|----------------------------------------|

|--------0-------------0-------|
|------------------------------|
|------8---8--------8----8-----| X3
|----9------------7------------|
|------------------------------|
|--7------------5--------------|

 VERSE
|------------------------------|
|-12-12-12-12-12-12-12-12------|
|-11-11-11-9--11-9--11-9-------| X2
|-9--9--9--9--9--9--9--9-------|
|------------------------------|
|------------------------------|

|------------------------------|
|-10-10-10-9-10-9-10-9---------|
|-9--9--9--9-9--9-9--9---------| X1    PLAY ALL THIS TILL FINISH
|-9--9--9--9-9--9-9--9---------|
|------------------------------|
|------------------------------|

|------------------------------|
|-10-10-10-9--10-9--10-9-------|
|-11-11-11-11-11-11-11-11------| X1
|-9--9--9--9--9--9--9--9-------|
|------------------------------|
|------------------------------|

Delay 422ms
Tap to rate this tab
 
# A B C D E F G H I J K L M N O P Q R S T U V W X Y Z