Song name
# A B C D E F G H I J K L M N O P Q R S T U V W X Y Z

U2 - The Fly tab

I learned this song mainly by ear, so I'm not entirely sure if this is all right, but
pretty sure it's right. Just as a warning, I'm not tabbing the solo, cuz it's pretty easy
figure out, if you have the time.
When I play this song I use distortion, Phaser, and a little Reverb. Sadly I don't have
wah pedal yet. Anyways, enjoy this tab, and sorry for whatever mistakes are in it. For
first couple times, you might have to listen to the song while playing for this tab to 
a lot of sense. lol.

Intro ---
e----------------------------|
B----------------------------|
G----------------------------|  (repeat 10x)
D----------------------------|
A-------7-7--5--7-7-7-7-5----|
E----0-----------------------|

Verse 1 ---

e--------------------------------------------------------|
B----12------------------------------------------/14-12--|
G----12(Use a wammy bar here if you have one)---/14-12---|(Then repeat intro 8x)
D----12----------------------------------------------12--|
A--------------------------------------------------------|
E--------------------------------------------------------|

Chorus ---

e------------------------------------------------------------|
B----/9------9--10--12--10--9----10--9-----------------------|
G--------9---------------------9--------9--11----------------|(repeat 2x)
D------------------------------------------------------------|
A------------------------------------------------------------|
E------------------------------------------------------------|

Bridge --- Repeat first part of Verse 1.

Verse 2 ---

e----------------------------|
B----------------------------|
G----------------------------|  (repeat 8x)
D----------------------------|
A-------7-7--5--7-7-7-7-5----|
E----0-----------------------|

Chorus ---

e------------------------------------------------------------|
B----/9------9--10--12--10--9----10--9-----------------------|
G--------9---------------------9--------9--11----------------|(repeat 2x)
D------------------------------------------------------------|
A------------------------------------------------------------|
E------------------------------------------------------------|

Solo --- Listen to the song, it's easy to figure out if you have time. I'm not going to
it. It's also fun to do your own improvising on the solo.

Last Chorus --- Solo continues, or else you can just play the chorus.

Outro ---

e----------------------------|
B----------------------------|
G----------------------------|  (repeat 17x) and end on an E Major chord.
D----------------------------|
A-------7-7--5--7-7-7-7-5----|
E----0-----------------------|


That's it! Thanks, and enjoy!
Tap to rate this tab
# A B C D E F G H I J K L M N O P Q R S T U V W X Y Z