Song name
# A B C D E F G H I J K L M N O P Q R S T U V W X Y Z

U2 - Walk On tab

e|---------------------------10-9-7--7h9-7h9p7-----------------------------|
B|7/8--8/10-10/12-12--12------------------------10-8h10p8-7\5-5/7-7--7/8|
G|----------------------------------------------------------------------------|
D|----------------------------------------------------------------------------|
A|----------------------------------------------------------------------------|
E|----------------------------------------------------------------------------|

e|-------------------10p9-------------------------------------------------------|
B|--8/10-10/12-1212--------10\7--7/10--10/14--14b15b14-12-10-10-7--------|
G|------------------------------------------------------------------------------|
D|------------------------------------------------------------------------------|
A|------------------------------------------------------------------------------|
E|------------------------------------------------------------------------------|

e|----------------------------------------------------------------------------|
B|5h7p5-----5/7\5-------------------------------------------------------------|
G|-------7---------7----------------------------------------------------------|
D|----------------------------------------------------------------------------|
A|----------------------------------------------------------------------------|
E|----------------------------------------------------------------------------|
Tap to rate this tab
# A B C D E F G H I J K L M N O P Q R S T U V W X Y Z