Song name
# A B C D E F G H I J K L M N O P Q R S T U V W X Y Z

U2 - Fez - Being Born tab

-------------------------------------------------------------------------------
			     fez being born
-------------------------------------------------------------------------------
Tabbed by:

                 most power chords not finished 
  
   time 
   1.03
e|---------------------------------------------------------------------------|
B|---------------------------------------------------------------------------|
G|---------------------------------------------------------------------------|
D|-12--12--12--12--12--12--12--12--12--12--12--12--12--12--12--12--12--12--12|
A|---------------------------------------------------------------------------|
E|-10--10--10--10--10--10--10--10--10--10--10--10--10--10--10--10--10--10--10|

   1.18
e|---------------------------------------------------------------------------|
B|---------------------------------------------------------------------------|
G|---------------------------------------------------------------------------|
D|-8--8--8--8--8--8--8--8--8--8--8--8--8--8--8--8--8--8--8--8--8--8--8--8--8-|
A|---------------------------------------------------------------------------|
E|-6--6--6--6--6--6--6--6--6--6--6--6--6--6--6--6--6--6--6--6--6--6--6--6--6-|
  
   1.23
e|---------------------------------------------------------------------------|
B|---------------------------------------------------------------------------|
G|---------------------------------------------------------------------------|
D|-10-10-10-10-10-10-10-10-10-10-10-10-10-10-10-10-10-10-10-10-10-10-10-10-10|
A|---------------------------------------------------------------------------|
E|-8--8--8--8--8--8--8--8--8--8--8--8--8--8--8--8--8--8--8--8--8--8--8--8--8-|
   
   1.26                                                            1.33  
e|---------------------------------------------------------------------------|
B|---------------------------------------------------------------------------|
G|-----------------------------------------------------------------5---------|
D|-8--8--8--8--8--8--8--8--8--8--8--8--8--8--8--8--8---8--8--8-----5---------|
A|-----------------------------------------------------------------3---------|
E|-6--6--6--6--6--6--6--6--6--6--6--6--6--6--6--6--6---6--6--6---------------|

  
e|---------------------------------------------------------------------------|
B|-13--12-------------11--10----------13--12--------------11--10-------------|
G|--------12---10-10----------10--9-----------12--10-10-----------10--9------|
D|---------------------------------------------------------------------------|
A|---------------------------------------------------------------------------|
E|---------------------------------------------------------------------------|

   1.54 
e|---------------------------------------------------------------------------|
B|---------------------------------------------------------------------------|
G|---------------------------------------------------------------------------|
D|-12--12--12--12--12--12--12--12--12--12--12--12--12--12--12--12--12--12--12|
A|---------------------------------------------------------------------------|
E|-10--10--10--10--10--10--10--10--10--10--10--10--10--10--10--10--10--10--10|

   2.10
e|---------------------------------------------------------------------------|
B|---------------------------------------------------------------------------|
G|---------------------------------------------------------------------------|
D|-8--8--8--8--8--8--8--8--8--8--8--8--8--8--8--8--8--8--8--8--8--8--8--8--8-|
A|---------------------------------------------------------------------------|
E|-6--6--6--6--6--6--6--6--6--6--6--6--6--6--6--6--6--6--6--6--6--6--6--6--6-|

    2.14
e|---------------------------------------------------------------------------|
B|---------------------------------------------------------------------------|
G|---------------------------------------------------------------------------|
D|-12--12--12--12--12--12--12--12--12--12--12--12--12--12--12--12--12--12--12|
A|---------------------------------------------------------------------------|
E|-10--10--10--10--10--10--10--10--10--10--10--10--10--10--10--10--10--10--10|


    2.24                            2.27      

e|---------------------------------------------------------------------------|
B|---------------------------------------------------------------------------|
G|---------------------------------------------------------------------------|
D|-10-10-10-10-10-10-10-10-10-10----8--8--8--8--8--8--8--8--8--8--8--8--8--8-|
A|---------------------------------------------------------------------------|
E|-8--8--8--8--8--8--8--8--8--8-----6--6--6--6--6--6--6--6--6--6--6--6--6--6-|
   
   
    2.35                           2.38                             2.46
e|---------------------------------------------------------------------------|
B|---------------------------------------------------------------------------|
G|------------------------------------------------------------------5--------|
D|-10-10-10-10-10-10-10-10-10-10---8--8--8--8--8--8--8--8--8--8-----5--------|
A|------------------------------------------------------------------3--------|
E|-8--8--8--8--8--8--8--8--8--8----6--6--6--6--6--6--6--6--6--6--------------|


   
e|---------------------------------------------------------------------------|
B|-13--12-------------11--10----------13--12--------------11--10-------------|
G|--------12---10-10----------10--9-----------12--10-10-----------10--9------|
D|---------------------------------------------------------------------------|
A|---------------------------------------------------------------------------|
E|---------------------------------------------------------------------------|


Tap to rate this tab
 
# A B C D E F G H I J K L M N O P Q R S T U V W X Y Z