Song name
# A B C D E F G H I J K L M N O P Q R S T U V W X Y Z

U2 - No Line On The Horizon tab

-------------------------------------------------------------------------------
			     no line on the horizon u2
-------------------------------------------------------------------------------
Tabbed by:kenykali
Email:

       my first go at tabbing hope u work it out hope it is alright

       w/heavy dist

    l know a girl whos like the sea l watch her changing every day for me


e|---------------------------------------------------------------------------|
B|---------------------------------------------------------------------------|
G|--9---9----9---9---9----9---9---9---9---9---9---9---9---9---9---9---9---9--|
D|---------------------------------------------------------------------------|
A|--7---7----7---7---7----7---7---7---7---7---7---7---7---7---7---7---7---7--|
E|---------------------------------------------------------------------------|
   oh   yeah                                                      oh oh

e|---------------------------------------------------------------------------|
B|---------------------------------------------------------------------------|
G|--9------------------------------------------------------------------------|
D|--------6---6---6---6---6---6---6---6---6---6---6---6---6---6---6---6---6--|
A|--7------------------------------------------------------------------------|
E|--------4---4---4---4---4---4---4---4---4---4---4---4---4---4---4---4---4--|

   one day she still the next she swells you can hear the universe in her
   she shells


e|---------------------------------------------------------------------------|
B|---------------------------------------------------------------------------|
G|--9---9---9---9---9---9---9---9---9---9---9---9---9---9---9---9---9---9----|
D|---------------------------------------------------------------------------|
A|--7---7---7---7---7---7---7---7---7---7---7---7---7---7---7---7---7---7----|
E|---------------------------------------------------------------------------|
   oh yeah

e|-----------------------------------------------------------------------------|
B|-----------------------------------------------------------------------------|
G|--9---9----8---8---8---8---8---8---8---8---8---8---8---8---8---8---8---8-----|
D|-----------6---6---6---6---6---6---6---6---6---6---6---6---6---6---6---6-----|
A|--7---7----------------------------------------------------------------------|
E|-----------------------------------------------------------------------------|


e|-----------------------------------------------------------------------------|
B|-----------------------------------------------------------------------------|
G|--8---8---9---9---9---9---9---9---9---9---9---9---9---9---9---9---9---9------|
D|--6---6----------------------------------------------------------------------|
A|----------7---7---7---7---7---7---7---7---7---7---7---7---7---7---7---7------|
E|-----------------------------------------------------------------------------|
    no no line on the horizon

e|---------------------------------------------------------------------------|
B|---------7---8---10---8---7---8---7----------------------------------------|
G|-----9--------------------------------9------------------------------------|
D|------------------------------------------9--------------------------------|
A|---------------------------------------------------------------------------|
E|---------------------------------------------------------------------------|
  l know a girl with a hole in her heart she said infitys a great place to


e|---------------------------------------------------------------------------|
B|---------------------------------------------------------------------------|
G|--9---9---9---9---9---9---9---9---9---9---9---9---9---9---9---9---9---9----|
D|---------------------------------------------------------------------------|
A|--7---7---7---7---7---7---7---7---7---7---7---7---7---7---7---7---7---7----|
E|---------------------------------------------------------------------------|

   start
e|---------------------------------------------------------------------------|
B|---------------------------------------------------------------------------|
G|--9------------------------------------------------------------------------|
D|--------6---6---6---6---6---6---6---6---6---6---6---6---6---6---6---6---6--|
A|--7------------------------------------------------------------------------|
E|--------4---4---4---4---4---4---4---4---4---4---4---4---4---4---4---4---4--|
     time is irelevant its not linear the she puts her tongue in my ear


e|---------------------------------------------------------------------------|
B|---------------------------------------------------------------------------|
G|--9---9---9---9---9---9---9---9---9---9---9---9---9---9---9---9---9---9----|
D|---------------------------------------------------------------------------|
A|--7---7---7---7---7---7---7---7---7---7---7---7---7---7---7---7---7---7----|
E|---------------------------------------------------------------------------|

             oh yeah

e|-----------------------------------------------------------------------------|
B|-----------------------------------------------------------------------------|
G|--9---9----8---8---8---8---8---8---8---8---8---8---8---8---8---8---8---8-----|
D|-----------6---6---6---6---6---6---6---6---6---6---6---6---6---6---6---6-----|
A|--7---7----------------------------------------------------------------------|
E|-----------------------------------------------------------------------------|


e|---------------------------------------------------------------------------|
B|---------------------------------------------------------------------------|
G|--9---9---9---9---9---9---9---9---9---9---9---9---9---9---9---9---9---9----|
D|---------------------------------------------------------------------------|
A|--7---7---7---7---7---7---7---7---7---7---7---7---7---7---7---7---7---7----|
E|---------------------------------------------------------------------------|

        no no line on the horizon


e|---------------------------------------------------------------------------|
B|---------7---8---10---8---7---8---7----------------------------------------|
G|-----9--------------------------------9------------------------------------|
D|------------------------------------------9--------------------------------|
A|---------------------------------------------------------------------------|
E|---------------------------------------------------------------------------|
        no no line on the horizon


e|------------------------------------------7--------------------------------|
B|---------7---8---10---8---7---8---7----------------------------------------|
G|-----9--------------------------------9------------------------------------|
D|---------------------------------------------------------------------------|
A|---------------------------------------------------------------------------|
E|---------------------------------------------------------------------------|

   ah--------ah

e|---------------------------------------------------------------------------|
B|---------------------------------------------------------------------------|
G|---------------------------------------------------------------------------|
D|---------------------------------------------------------------------------|
A|-----------------------------0----------0---------2----------4-------------|
E|---0-------2--------4------------------------------------------------------|

e|---------------------------------------------------------------------------|
B|---------------------------------------------------------------------------|
G|---------------------------------------------------------------------------|
D|---------------------------------------------------------------------------|
A|---6------7----------9-------11--------12----12---14---14---16-----16------|
E|---------------------------------------------------------------------------|

    the songs in your head

e|---------------------------------------------------------------------------|
B|---------------------------------------------------------------------------|
G|---------------------------------------------------------------------------|
D|---------------------------------------------------------------------------|
A|--16---------------------------------------------2-----0-------------------|
E|--------2--------2----2-----0-----2----0---2------------------4------2-----|

e|---------------------------------------------------------------------------|
B|---------------------------------------------------------------------------|
G|---------------------------------------------------------------------------|
D|---------------------------------------------------------------------------|
A|---------------------------------------------------------------------------|
E|--3------3-------10----10--9----9------7-------7---7----19---19---19---19--|

e|---------------------------------------------------------------------------|
B|---------------------------------------------------------------------------|
G|---------------------------------------------------------------------------|
D|---------------------------------------------------------------------------|
A|---------------------------------------------------------------------------|
E|--19-----------------------------------------------------------------------|

   every night  l have the same dream and im hatching some plot scheming some
   scheme oh yeah

e|---------------------------------------------------------------------------|
B|---------------------------------------------------------------------------|
G|---------------------------------------------------------------------------|
D|---------------------------------------------------------------------------|
A|---------------------------------------------------------------------------|
E|---------------------------------------------------------------------------|

   im a traffic cop rudumarais the sirens wailing but its me that want to get
   away

e|---------------------------------------------------------------------------|
B|---------------------------------------------------------------------------|
G|--9---9----9---9---9----9---9---9---9---9---9---9---9---9---9---9---9---9--|
D|---------------------------------------------------------------------------|
A|--7---7----7---7---7----7---7---7---7---7---7---7---7---7---7---7---7---7--|
E|---------------------------------------------------------------------------|

e|-----------------------------------------------------------------------------|
B|-----------------------------------------------------------------------------|
G|--9---9----8---8---8---8---8---8---8---8---8---8---8---8---8---8---8---8-----|
D|-----------6---6---6---6---6---6---6---6---6---6---6---6---6---6---6---6-----|
A|--7---7----------------------------------------------------------------------|
E|-----------------------------------------------------------------------------|

e|---------------------------------------------------------------------------|
B|---------------------------------------------------------------------------|
G|--9---9----9---9---9----9---9---9---9---9---9---9---9---9---9---9---9---9--|
D|---------------------------------------------------------------------------|
A|--7---7----7---7---7----7---7---7---7---7---7---7---7---7---7---7---7---7--|
E|---------------------------------------------------------------------------|

       no no line on the horizon


e|---------------------------------------------------------------------------|
B|---------7---8---10---8---7---8---7----------------------------------------|
G|-----9--------------------------------9----------9----9--------------------|
D|------------------------------------------9---9-----9----------------------|
A|---------------------------------------------------------------------------|
E|---------------------------------------------------------------------------|
        no no line on the horizon


e|------------------------------------------7--------------------------------|
B|---------7---8---10---8---7---8---7----------------------------------------|
G|-----9--------------------------------9------------------------------------|
D|---------------------------------------------------------------------------|
A|---------------------------------------------------------------------------|
E|---------------------------------------------------------------------------|

e|----9---7---------9---7----------9---7---------9---7-------------------------|
B|------------9-------------9-------------9-------------9----------------------|
G|--------------9--------------9-------------9-------------9-------------------|
D|-----------------------------------------------------------------------------|
A|-----------------------------------------------------------------------------|
E|-----------------------------------------------------------------------------|

e|----8---6----------8---6---------9---7--------9--7-------9--7--------------|
B|------------9-------------9-------------9----------9----------9------------|
G|--------------9-------------9-------------9----------9----------9----------|
D|---------------------------------------------------------------------------|
A|---------------------------------------------------------------------------|
E|---------------------------------------------------------------------------|
Tap to rate this tab
# A B C D E F G H I J K L M N O P Q R S T U V W X Y Z