Song name
# A B C D E F G H I J K L M N O P Q R S T U V W X Y Z

U2 - One Live tab

This is how they play it live!!!

|----------------------------------------------------|
|------5--------5------------------------------------|
|------5--7-5h7-5--5-5h7p5---------------------------|
|--------------------------------12p10-12p10-12------|
|--------------------------------12p10-12p10-12------|
|--/5-----------------------/10-------(10)-----------|


|----0--(0)--0-----------------------------------|
|----1-3-1h3-1--1h3p1-------(3)-3----(3)-(3)-----|
|----------------------------4--4h5p4-5---4------|
|--3--------------------3/5--5-------(5)--5--5---|    x4
|------------------------------------------------|
|------------------------------------------------|




|---------------------------------------------|
|-------5p3---3-5-----------------------------|
|-------5---5---5-------------7p5-5h7---------|
|-----------------------------7---7-7-7-------|
|--2/3--------------3(p2)---------------------|
|-------------------------3/5-----------------|

|----0--(0)--0---------------------------------|
|----1-3-1h3-1-1h3------5p3---3-5--------------|
|-----------------------5---5---5--------------|
|--3-------------------------------------------|  x2
|--------------------3-------------3-----------|
|----------------------------------------------|

|-----------------------------------------------|
|----------------7---5-----------------7-7------|
|----------------7---5-----------------7-7------|
|---------------(7)--5-----------------7-7------|
|------3-5-----------------------4/5------------|
|--3/5-----(/)5----------5-(5)-5----------------|

|------------0-0----------2/3-3--------|
|------------1-1-----------3--3--------|
|------------2-2-----------4--4--------|
|-----(/2)3--3----(3)-3/5-----5--------|  x?
|---5----------------------------------|
|--------------------------------------|
Tap to rate this tab
# A B C D E F G H I J K L M N O P Q R S T U V W X Y Z