Song name
# A B C D E F G H I J K L M N O P Q R S T U V W X Y Z

U2 - With Or Without You tab

-------------------------------------------------------------------------------
			    (U218) With or Without You - U2
-------------------------------------------------------------------------------
Tabbed by: Jeremy Cobb
Email: kool-aid-king@live.com (Feel free to shoot me an E-mail if u wanna argue 
about how the song goes, lol)

There are no good tabs for this song on this site, so i decided that i'll make one 
of just the major Riffs in the song :D!

Tuning: Standard

(swells at the beginning of the song) 
Those are the notes, just get the rythem by listening to the song.
e|--14--15--17-19--17--15--14------------------------------------------------|
B|---------------------------------------------------------------------------|
G|---------------------------------------------------------------------------|
D|---------------------------------------------------------------------------|
A|---------------------------------------------------------------------------|
E|---------------------------------------------------------------------------|

Main Riff
e|---------------------------------------------------------------------------|
B|-------15---------15-------15----------------------------------------------|
G|--12---------12-------12---------------------------------------------------|
D|-------------------------------16--------17--------------------------------|
A|------------------------------------17-------------------------------------|
E|---------------------------------------------------------------------------|

Riff B
e|--------0------------------------------------------------------------------|
B|--------0------------------------------------------------------------------|
G|---------------------------------------------------------------------------|
D|---12----------------------------------------------------------------------|
A|---------------------------------------------------------------------------|
E|---------------------------------------------------------------------------|


************************************

| /   slide up
| \   slide down
| h   hammer-on
| p   pull-off
| ~   vibrato
| +   harmonic
| x   Mute note
| b   Bend
| pb  Pre-bend
| br  Bend release
| pbr Pre-bend release
| brb Bend release bend

************************************
Tap to rate this tab
 
# A B C D E F G H I J K L M N O P Q R S T U V W X Y Z