Song name
# A B C D E F G H I J K L M N O P Q R S T U V W X Y Z

U2 - All I Want Is You tab

delay should be set around 420 ms. also this is tuned half a step down and this is not 
exactly from the song, however it is the correct notes and  after listening you will know 
to play the next sections.

|-2-2-2-2-2-2-2--5-5-5-5-5-7-7-7-9-9-5--55555575--1414141414----------|
|--2-2-3-3-2-2-2--5-5-5-5-5-5-5-5-5-5-5-55555555--1515151515----------|
|---------------------------------------------------------------------|
|---------------------------------------------------------------------|
|---------------------------------------------------------------------|
|---------------------------------------------------------------------|


|17--17--17--17--17-17--17--17--17---1717171717-20--------------------|
|--14--14--14--14-15--15--17--17--17-1717171717-17 x5-----------------|
|---------------------------------------------------------------------|
|---------------------------------------------------------------------|

A - D x 2


|-9-----------14------------------------------------------------------------|
|10-----------15 x 5ish-----------------------------------------------------|
| 9-x  5ish---14------------------------------------------------------------|
|-7-------------------------------------------------------------------------|
|---------------------------------------------------------------------------|
|---------------------------------------------------------------------------|
Tap to rate this tab
# A B C D E F G H I J K L M N O P Q R S T U V W X Y Z