U2 - Like A Song tab

Artist:U2
Album:War
Song:Like a Song

OK this is for the intro and the verse(its slightly faster in the intro I think)
e--------------------------------------------------|
B------0----------3---------0--------1--0--1--0----|
G--------0----------2---------2--------------------|   X2
D----2-----2---0------0---2-----2------------------|
A--------------------------------------------------|
E--------------------------------------------------|

Solo
e----------------------------------------------10-12-14-10-12-14-|
B-5-5-5-7s8-7s10--12-13-12-10s5-5-5-5-7s8-7s10-------------------|
G----------------------------------------------------------------|
D----------------------------------------------------------------|
A----------------------------------------------------------------|
E----------------------------------------------------------------|

"WEAR IT ON MY SLEEVE" PART

E-5----9--|
B-6----8--|
G-7----7--|

"TO WRONG TO BE TOLD,EXACTELY WHO ARE YOU"
E-10-----------------12--|
B-8------------------10--|
G-7------------------9---|

AFTER "IS THERE NOTHING LEFT"
E-3---0---3---2--|
B-3---3---3---3--|
G-2---2---2---2--| 2X

OUTRO
E-0-0-0-0-0000-|
B-3-3-3-3-1111-|
G-2-2-2-2-0000-|
Tap to rate this tab
 
# A B C D E F G H I J K L M N O P Q R S T U V W X Y Z