U2 - Discotheque tab

#----------------------------------PLEASE NOTE---------------------------------#
#This file is the author's own work and represents their interpretation of the #
#song. You may only use this file for private study, scholarship, or research. #
#------------------------------------------------------------------------------##

                               DISCOTHEQUE (Live)
                                As recorded by U2


Gtr I (D# G# C# F# A# D#) - 'Lead Guitar (Edge)'

   Verse
   4/4
    Gtr I
    E. E S E E. E S E E. E S E S S E S E.  6x
||-----------------------------------------||
||o---------------------------------------o||
||-----------------------------------------||
||-----------------------------x-x---------||
||o-5--------7--------5--------x-x--------o||
||-----7-5-7----7-5-7----7-5-7-x-x-7-5-7---||


  E S S S E S S S E S S S E S S S E S S S E S S S S S
|-----------------------------------------------------|
|-----------------------------------------------------|
|-----------------------------------------------------|
|-x-x-x-x-x-x-x-x-x-x-x-x-x-x-x-x-x-x-x-x-x-x-x-x-x-x-|
|-x-x-x-x-x-x-x-x-x-x-x-x-x-x-x-x-x-x-x-x-x-x-x-x-x-x-|
|-x-x-x-x-x-x-x-x-x-x-x-x-x-x-x-x-x-x-x-x-x-x-x-x-x-x-|


 4/4
  Gtr I
  E. E S E E. E S E E. E S E S S E S E.
|---------------------------------------|
|---------------------------------------|
|---------------------------------------|
|----------------------------x-x--------|
|-5--------7--------5--------x-x--------|
|----7-5-7----7-5-7----7-5-7-x-x-7-5-7--|


  E S S S E S S S E S S S E S S S E S S S E S S S S S
|-----------------------------------------------------|
|-----------------------------------------------------|
|-----------------------------------------------------|
|-x-x-x-x-x-x-x-x-x-x-x-x-x-x-x-x-x-x-x-x-x-x-x-x-x-x-|
|-x-x-x-x-x-x-x-x-x-x-x-x-x-x-x-x-x-x-x-x-x-x-x-x-x-x-|
|-x-x-x-x-x-x-x-x-x-x-x-x-x-x-x-x-x-x-x-x-x-x-x-x-x-x-|


 4/4
  Gtr I
  E. E S E E. E S E E. E S E S S E S E.
|---------------------------------------|
|---------------------------------------|
|---------------------------------------|
|----------------------------x-x--------|
|-5--------7--------5--------x-x--------|
|----7-5-7----7-5-7----7-5-7-x-x-7-5-7--|


   Chorus
    Q  E E E E E W        +E  Q  E E E E E W        +E
||-------------------------------------------------------||
||o-----------------------------------------------------o||
||--7--7-6-7-6-7-9--------(9)-7--7-6-7-6-7-9--------(9)--||
||--7--7-6-7-6-7-9--------(9)-7--7-6-7-6-7-9--------(9)--||
||o-5--5-4-5-4-5-7--------(7)-5--5-4-5-4-5-7--------(7)-o||
||-------------------------------------------------------||


   Bridge/ Verse 2
   4/4
    E. E S E E. E S E E. E S E S S E S E.  8x
||-----------------------------------------||
||o---------------------------------------o||
||-----------------------------------------||
||-----------------------------x-x---------||
||o-5--------7--------5--------x-x--------o||
||-----7-5-7----7-5-7----7-5-7-x-x-7-5-7---||


  E S S S E S S S E S S S E S S S E S S S E S S S S S
|-----------------------------------------------------|
|-----------------------------------------------------|
|-----------------------------------------------------|
|-x-x-x-x-x-x-x-x-x-x-x-x-x-x-x-x-x-x-x-x-x-x-x-x-x-x-|
|-x-x-x-x-x-x-x-x-x-x-x-x-x-x-x-x-x-x-x-x-x-x-x-x-x-x-|
|-x-x-x-x-x-x-x-x-x-x-x-x-x-x-x-x-x-x-x-x-x-x-x-x-x-x-|


 4/4
  Gtr I
  E. E S E E. E S E E. E S E S S E S E.
|---------------------------------------|
|---------------------------------------|
|---------------------------------------|
|----------------------------x-x--------|
|-5--------7--------5--------x-x--------|
|----7-5-7----7-5-7----7-5-7-x-x-7-5-7--|


  E S S S E S S S E S S S E S S S E S S S E S S S S S
|-----------------------------------------------------|
|-----------------------------------------------------|
|-----------------------------------------------------|
|-x-x-x-x-x-x-x-x-x-x-x-x-x-x-x-x-x-x-x-x-x-x-x-x-x-x-|
|-x-x-x-x-x-x-x-x-x-x-x-x-x-x-x-x-x-x-x-x-x-x-x-x-x-x-|
|-x-x-x-x-x-x-x-x-x-x-x-x-x-x-x-x-x-x-x-x-x-x-x-x-x-x-|


 4/4
  Gtr I
  E. E S E E. E S E E. E S E S S E S E.
|---------------------------------------|
|---------------------------------------|
|---------------------------------------|
|----------------------------x-x--------|
|-5--------7--------5--------x-x--------|
|----7-5-7----7-5-7----7-5-7-x-x-7-5-7--|


  E S S S E S S S E S S S E S S S E S S S E S S S S S
|-----------------------------------------------------|
|-----------------------------------------------------|
|-----------------------------------------------------|
|-x-x-x-x-x-x-x-x-x-x-x-x-x-x-x-x-x-x-x-x-x-x-x-x-x-x-|
|-x-x-x-x-x-x-x-x-x-x-x-x-x-x-x-x-x-x-x-x-x-x-x-x-x-x-|
|-x-x-x-x-x-x-x-x-x-x-x-x-x-x-x-x-x-x-x-x-x-x-x-x-x-x-|


 4/4
  Gtr I
  E. E S E E. E S E E. E S E S S E S E.
|---------------------------------------|
|---------------------------------------|
|---------------------------------------|
|----------------------------x-x--------|
|-5--------7--------5--------x-x--------|
|----7-5-7----7-5-7----7-5-7-x-x-7-5-7--|


   Chorus 2
    Q  E E E E E W        +E  Q  E E E E E W        +E
||-------------------------------------------------------||
||o-----------------------------------------------------o||
||--7--7-6-7-6-7-9--------(9)-7--7-6-7-6-7-9--------(9)--||
||--7--7-6-7-6-7-9--------(9)-7--7-6-7-6-7-9--------(9)--||
||o-5--5-4-5-4-5-7--------(7)-5--5-4-5-4-5-7--------(7)-o||
||-------------------------------------------------------||


   Middle 8
    E E E E  E E  E E E E E E  E E  Q  E E E E  E E  E E E E E E  E E  Q    6x
||-------------7----7------------7----------------7----7------------7-------||
||o-----7---10---10-------7---10---10------9---10---10-------9---10---10---o||
||----7---7-------------7---7------------9---9-------------9---9------------||
||--9-----------------9----------------9-----------------9------------------||
||o------------------------------------------------------------------------o||
||--------------------------------------------------------------------------||


  E E E E  E E  E E E E E E  E E  Q  E E E E  E E  E E E E E E  E E  Q
|------------7----7------------7----------------7----7------------7------|
|-----7---10---10-------7---10---10------9---10---10-------9---10---10---|
|---7---7-------------7---7------------9---9-------------9---9-----------|
|-9-----------------9----------------9-----------------9-----------------|
|------------------------------------------------------------------------|
|------------------------------------------------------------------------|


  E E E E  E E  E E E E E E  E E  Q  E E E E  E E  E E  E E  E E  E E  E E
|------------7----7------------7----------------7----7----7----7----7----7--|
|-----8---10---10-------8---10---10------7---10---10---10---10---10---10----|
|---7---7-------------7---7------------7---7--------------------------------|
|-9-----------------9----------------9--------------------------------------|
|---------------------------------------------------------------------------|
|---------------------------------------------------------------------------|


  E E E E E E E E E E E E E E E E E E E E E E E E W
|---7-----7-----7-----7-----7-----7-----7-----7---7----|
|-----7-----7-----7-----7-----7-----7-----7-----7-7----|
|-------7-----7-----7-----7-----7-----7-----7-----7----|
|-9----------------------------------------------------|
|------------------------------------------------------|
|------------------------------------------------------|


   Outro/ Boom Cha
    E E S E S E E S E S E E S E S E E S E S14x
||------------------------------------------||
||o----------------------------------------o||
||------------------------------------------||
||------------------------------------------||
||o----------------------------------------o||
||--7-7-5-7-5-7-7-5-7-5-7-7-5-7-5-7-7-5-7-5-||


  W        W        W        W
|---------------------------------|
|---------------------------------|
|---------------------------------|
|---------------------------------|
|---------------------------------|
|-7--------5--------4--------3----|


Duration Legend
---------------
W - whole; H - half; Q - quarter; E - 8th; S - 16th; T - 32nd; X - 64th; a - acciaccatura
+ - note tied to previous; . - note dotted; .. - note double dotted
Uncapitalized letters represent notes that are staccato (1/2 duration)
Irregular groupings are notated above the duration line
Duration letters will always appear directly above the note/fret number it represents the
duration for.  Duration letters with no fret number below them represent rests.  Multi-
bar rests are notated in the form Wxn, where n is the number of bars to rest for.  Low
melody durations appear below the staff

Tablature Legend
----------------
 h   - hammer-on
 p   - pull-off
 b   - bend
 pb  - pre-bend
 r   - bend release (if no number after the r, then release immediately)
 /\  - slide into or out of (from/to "nowhere")
 s   - legato slide
 S   - shift slide
  - natural harmonic
[n]  - artificial harmonic
n(n) - tapped harmonic
 ~   - vibrato
 tr  - trill
 T   - tap
 TP  - trem. picking
 PM  - palm muting
\n/  - tremolo bar dip; n = amount to dip
 \n  - tremolo bar down
 n/  - tremolo bar up
/n\  - tremolo bar inverted dip
 =   - hold bend; also acts as connecting device for hammers/pulls
 <>  - volume swell (louder/softer)
 x   - on rhythm slash represents muted slash
 o   - on rhythm slash represents single note slash

Misc Legend
-----------
 |  - bar
||  - double bar
||o - repeat start
o|| - repeat end
*|  - double bar (ending)
 :  - bar (freetime)
 $  - Segno
 &  - Coda
Tempo markers -  = BPM(8/16=s8/s16), where s8 = swing 8ths, s16 = swing 16ths


***************************************************************************************
* Generated using Power Tab Editor by Brad Larsen - http://powertab.guitarnetwork.org *
***************************************************************************************
Tap to rate this tab
 
# A B C D E F G H I J K L M N O P Q R S T U V W X Y Z