Song name
# A B C D E F G H I J K L M N O P Q R S T U V W X Y Z

U2 - If God Will Send His Angels tab

-----------------------------------------------------------------------------
		     If God Will Send His Angels - U2
-----------------------------------------------------------------------------
Tabbed by: bearwrestler45

Tuning: Standard

The main riff the Edge plays throughout is:

e|----------------6---------------------------------------------------------|
B|--7-7--9-9----9---9-7----7-7--9-9-----------------------------------------|
G|-----------------------8--------------------------------------------------|
D|--------------------------------------------------------------------------|
A|--------------------------------------------------------------------------|
E|--------------------------------------------------------------------------|

CHORDS:
F#     C#        D#m 
Nobody else here baby
F#          C#      D#m
No-one else here to blame
F#        C#        D#m
No-one to point the finger
          F#      C#         D#m
It's just you and me and the rain.

         C#                B
It's the blind leading the blond
         C#              B
It's the stuff, it's the stuff of country songs.

        F#       C#       D#m
Hey, if God will send his angels
       F#       C#     D#m
And if God will send a sign
       F#       C#       D#m
And if God will send his angels

Would everything be alright?


Then the little riff between verses goes:
e|--------------------------------------------------------------------------|
B|--------------------------------------------------------------------------|
G|-11--8-11-8----11--8-11-8----8--------------------------------------------|
D|------------11------------11----------------------------------------------|
A|--------------------------------------------------------------------------|
E|--------------------------------------------------------------------------|

Towards the end of the song the Edge just does small variations on the main riff, so for instance:
e|-----------6--------------6-----------------------------------------------|
B|--6h7-6h7----------7-6h7----7---------------------------------------------|
G|--------------------------------------------------------------------------|
D|--------------------------------------------------------------------------|
A|--------------------------------------------------------------------------|
E|--------------------------------------------------------------------------|
Tap to rate this tab
 
# A B C D E F G H I J K L M N O P Q R S T U V W X Y Z