Song name
# A B C D E F G H I J K L M N O P Q R S T U V W X Y Z

U2 - Please tab

Help us improve GuitareTab! Take a short survey!
JWetton1@student.derby.ac.uk

Here is my interpretation of U2'S Please


Capo 1st fret

Verse

E----6-----------------------------------6----------|
B----6-----------6-----------6-----6-----6----------|
G----6-----------6-----------6-----6-----6----------|
D----6--h--8-----8---p---6---8-----6-----6---h----8-|
A----8-----------8-----------8-----8-----8----------|
E---------------------------------------------------|

E--------------------------------------------------|
B--------------------------------------------------|
G--------------------------------------------------|
D-----8--p--6---8---6----8---------6---------------|
A-----------------------------8---------8----------|
E--------------------------------------------------|


Chorus

Not Relative to capo

E--------------------------------------------|
B------------------------------------------4-|
G-------------3------5------3---h----5/6-----|
D--------------------------------------------|
A--------------------------------------------|
E--1----1------------------------------------|

E----------------------------------------------------|
B----------------------------------------------------|
G-------------3-----5-------3--H-----5/6------5----3-|
D----------------------------------------------------|
A----------------------------------------------------|
E--1----1--------------------------------------------|

Love is not, what ......

E--------------------------------XX-------------------------------XX-|
B--------------------------------XX-------------------------------XX-|
G--------------------------------XX-------------------------------XX-|
D---------------10----8-----10---XX--------8-8----8-8-----8---10--XX-|
A--------------------------------XX-----10-----10------10---------XX-|
E-------8------------------------XX-------------------------------XX-|
Related for Please tab