Song name
# A B C D E F G H I J K L M N O P Q R S T U V W X Y Z

U2 - Please tab

PLEASE (LIVE)
 
I think this is the right way to play Please.
Mr. The Edge uses a lot of effects and a Gibson Les Paul for this song. 
Remember to tune your guitar down 1/2 step an put the capo on the second fret.

Intro and verse:

w/ slight distortion, compressor, delay and a rotary sound

E---------------------------------------------
B---------------------------------------------
G-7---7--7---7-----7-----7--7----------7---7--
D-7---7--9---7-----7-----9--7----------7---9--
A-------------------------------9-------------
E---------------------------------------------


Then play:

w/ delay, compressor and some wah-wah effect

E---------------------------------------------
B---------------------------------------------
G---7---7---7---6---6---6---6---9---9---9---9-
D-9---9---9---9---9---9---9---9---9---9---9---
A---------------------------------------------
E---------------------------------------------

You had to win.........


Chorus:

w/ slight distortion, delay, compressor 

E-------------------0-------------------------
B---------------------------------------------
G--------4--6--7-------------4h6p4------------
D---------------------------------------------
A--0-----------------------------------0------
E---------------------------------------------

Please........


Solo:

w/ delay, compressor and wah-wah pedal

E--------------------------------------------
B--------------------------------------------
G--------------------------------------------
D--x-x--9---7---------7---7------------------
A--x-x--------7h9--9----9---9----7---5-------
E--x-x---------------------------------------


Then (also with distortion):

E-----10----10----------9-----9--------
B---12----12----12----12----12----12---
G-11----11----11----11----11----11-----
D---------------------------------------
A---------------------------------------
E---------------------------------------

E-----12----12------10------10--10------
B---12----12----12----12--12--12--12----
G-11----11----11--------11----------11--
D---------------------------------------
A---------------------------------------
E--------------------------------------- 

E-----------------------------------
B-15-15h17-17(b)17(b)-15-17-15-15---
G---------------------------------16 
D----------------------------------- 
A----------------------------------- 
E-----------------------------------

E----17----17----17----17----17-
B-15----15----15----15----15----
G-------------------------------
D-------------------------------
A-------------------------------
E-------------------------------

E----19----19----19----19----19-
B-17----17----17----17----17----
G-------------------------------
D-------------------------------
A-------------------------------
E-------------------------------

E----21----21----21----21-212121
B-19----19----19----19----191919
G-------------------------------
D-------------------------------
A-------------------------------
E-------------------------------

then slide down to play second part of solo

then end quietly with:

B-----------7-------------7------------7-5-5/7-7
G-4---4-6-7-----4---4-6-7----4---4-6-7----------


for any suggestion, correction send me an e-mail: perezedge@tin.it

Al Perez. by the Project >Underground<




Tap to rate this tab
# A B C D E F G H I J K L M N O P Q R S T U V W X Y Z