Song name
# A B C D E F G H I J K L M N O P Q R S T U V W X Y Z

U2 - Beautiful Day tab

Regular Tuning:
The song starts out with the chords
A Bm D G
A D A
INTRO:
E-------12-------------12-------12------------12-------------------------|
B----------7-----------------------7-------------------------------------|
G------------7-------7---------------7------7----------------------------|
D--------------7---7-------------------7--7------------------------------|
A------------------------------------------------------------------------|
E------------------------------------------------------------------------|
                 A    Bm  D  G
The heart is a bloom,
D                 A
Shoots up throught the stony ground,
                A     Bm  D  G
But there's no room,
D                 A
No space to rent in this town.

2X w/lyrics above
E------------------------------------------------------------------------|
B------------------------------------------------------------------------|
G------------------------------------------------------------------------|
D------------------------------------------------------------------------|
A------------------------------------------------------------------------|
E-555-777-10-10-10-333333-10-10-10-10-10-10-5-5-5-5-5-5------------------|

                A    Bm  D  G
You're out of luck,
D                     A
and the reason that you had to care,
                  A    Bm   D   G
the traffic is stuck,
D                    A
and you're not moving anywhere.
                           A    Bm  D  G
You thought you found a friend,
D                    A
to take you out of this place.
              A    Bm        D   G
someone you could lend, a hand
D             A
in return for grace

4X w/lyrics above(RIFF 1)
E----------0-----0-----------0-------0------|
B------7-----7-----7-----7-----7-------7----|
G----6---6-----7-----4-4---4-----6-6-----6--|
D-------------------------------------------|
A-------------------------------------------|
E-------------------------------------------|

It's a beautiful day

2X w/lyrics above and below(RIFF 2)
     A   Bm   D      G   D        A
E----5---7----10--3--3---10--10---5--5------------------------|
B----5---7----10--3--3---10--10---5--5------------------------|
G----6---7----11--4--4---11--11---6--6------------------------|
D----7---9----12--5--5---12--12---7--7------------------------|
A----7---9----12--5--5---12--12---7--7------------------------|
E----5---7----10--3--3---10--10---5--5------------------------|

The sky falls and you feel like
It's a beautiful day
It's a beautiful day

RIFF 1
You're on the road but you've got no destination
You're in the mud, in the maze of her imagination
You love this town even if it doesn't ring true
You've been all over and it's been all over you

It's a beautiful day

RIFF 2
Don't let it get away
It's a beautiful day
Don't let it get away

(RIFF 3)

E------------------------------------------------|
B---14----14----14----12----14----15----15----15-|
G---14----14----14----14----14----14----12----12-|
D------------------------------------------------|
A------------------------------------------------|
E------------------------------------------------|

E-----------------------------------------------|
B-15----15----15----15----15----15----14----15--|
G-12----12----12----14----14----14----14----14--|
D-----------------------------------------------|
A-----------------------------------------------|
E-----------------------------------------------|

E----------------------------------------------------|
B-14----12----14----12----14----12----14----12----14-|
D-14----14----14----14----14----14----14----14----14-|
G----------------------------------------------------|
A----------------------------------------------------|
E----------------------------------------------------|

F#m      G      D                A
Touch me,       Take me to the other place
F#m      G      G                A
Teach me,       I know I'm not a hopeless case

RIFF 1 w/ old chords A Bm D G (1X)

Em
See the world in green and blue
D
See China right in front of you
Em              G
See the canyons broken my cloud
D
See the tuna fleets clearing the see out
Em              G
See the bedouin fires at night
D
See the oil fields at first light
Em               G
See the bird with a leaf in her mouth
D
After the flood all the colors came out

It was a beautiful day

RIFF 2
Beautiful day
Don't let it get away


RIFF 3
F#m     G      D          A
touch me,      Take me to that other place
F#m     G      D          A
Reach me,      I know I'm not a hopelesscase
Tap to rate this tab
 
# A B C D E F G H I J K L M N O P Q R S T U V W X Y Z