Song name
# A B C D E F G H I J K L M N O P Q R S T U V W X Y Z

U2 - With Or Without You tab

*************************
-U2
-The Joshua Tree
-With Or Without You
*************************
Guitar 1: (Bono)

Intro, Verse 1 and 2
|----10------------10-----------------|
|------------10------------10---------|
|----------------11------------11-----|
|--------12------------12-------------|
|-------------------------------------|
|-------------------------------------|

Guitar 2: (The Edge)

Intro, Verse 1 and 2
|--14--------15----17--------19----17--15--14---------|
|-----------------------------------------------------|
|-----------------------------------------------------|
|-----------------------------------------------------|
|-----------------------------------------------------|
|-----------------------------------------------------|

Guitar 1: (Bono)

Chorus
|----10------------10-----------------|
|------------10------------10---------|
|----------------11------------11-----|
|--------12------------12-------------|
|-------------------------------------|
|-------------------------------------|

Guitar 2: (The Edge)

Chorus
|-------10-----10---10------10-------------------------|
|----8------8------------8-------7---------------------|
|------------------------------------------------0-----|
|---------------------------------------0--0-----------|
|------------------------------------------------------|
|------------------------------------------------------|

Guitar1: (Bono)

Verse 3
|----10-------------10-----------------|
|------------10-------------10---------|
|----------------11-------------11-----|
|--------12-------------12-------------|
|--------------------------------------|
|--------------------------------------|

Guitar 2: (The Edge)

Verse 3
|-------10-----10---10------10-------------------------|
|----8------8------------8-------7---------------------|
|------------------------------------------------0-----|
|---------------------------------------0--0-----------|
|------------------------------------------------------|
|------------------------------------------------------|

Guitar 1: (Bono)

Solo, Outro
|-----2-2-2-2-----0-0-0-0------2-2-2-2-----3-3-3-3---------------|
|--3-----------3-----------3------------3------------------------|
|----------------------------------------------------------------|
|----------------------------------------------------------------|
|----------------------------------------------------------------|
|----------------------------------------------------------------|

For the solo you can also strum these chords (Find the Pattern)
          
      D         Dsus2       D/G         Dsus4/G
|--2-2-2-2--|--0-0-0-0--|--2-2-2-2--|--3-3-3-3--|
|--3-3-3-3--|--3-3-3-3--|--3-3-3-3--|--3-3-3-3--|
|--2-2-2-2--|--2-2-2-2--|--0-0-0-0--|--0-0-0-0--|
|--0-0-0-0--|--0-0-0-0--|--0-0-0-0--|--0-0-0-0--|
|-----------|-----------|-----------|-----------|
|-----------|-----------|-----------|-----------|

Guitar 2: (The Edge)

Outro
|-------10-----10---10------10-------------------------|
|----8------8------------8-------7---------------------|
|------------------------------------------------0-----|
|---------------------------------------0--0-----------|
|------------------------------------------------------|
|------------------------------------------------------|

I am 95% positive this is right but if you find any errors or have any questions 
email me at whausman@hotmail.com

This sounds better and is a fun song to play with a delay pedal.
Have Fun!!
Tap to rate this tab
 
# A B C D E F G H I J K L M N O P Q R S T U V W X Y Z