Song name
# A B C D E F G H I J K L M N O P Q R S T U V W X Y Z

U2 - Pride In The Name Of Love tab

Intro:Use whammy

E---12------------12-------------|
B---12------------12-------------|
G------------7-------------7-----|
D------------7-------------7-----|
A--------7-------------7---------|
E--------------------------------|




Main riff:
E-----------------------------------------------------------------|
B--12--12--12--12--12--12--12--12--12--12--12--12--12--12--X---X--|
G--11--11--11--11--11--11--9---9---11--11--9---9---11--11--X---X--|
D--9---9---9---9---9---9---9---9---9---9---9---9---9---9---X---X--|
A-----------------------------------------------------------------|
E-----------------------------------------------------------------|


E-----------------------------------------------------------------|
B--10--10--10--10--10--10--9---9--10--10---9---9--10--10---X---X--|
G--9---9---9---9---9---9---9---9---9---9---9---9---9---9---X---X--|
D--9---9---9---9---9---9---9---9---9---9---9---9---9---9---X---X--|
A-----------------------------------------------------------------|
E-----------------------------------------------------------------|

repeat:6 times

Verse:

E--------0-----------------0---------|
B------------------------------0-----|
G------8-----8-----------8-------8---|
D----9---------9-------7-------------|
A------------------------------------|
E--7-----------------5---------------|


Repeat:2 times

Ref:

E-----------------------------------------------------------------|
B--12--12--12--12--12--12--12--12--12--12--12--12--12--12--X---X--|
G--11--11--11--11--11--11--9---9---11--11--9---9---11--11--X---X--|
D--9---9---9---9---9---9---9---9---9---9---9---9---9---9---X---X--|
A-----------------------------------------------------------------|
E-----------------------------------------------------------------|


E-----------------------------------------------------------------|
B--10--10--10--10--10--10--9---9--10--10---9---9--10--10---X---X--|
G--9---9---9---9---9---9---9---9---9---9---9---9---9---9---X---X--|
D--9---9---9---9---9---9---9---9---9---9---9---9---9---9---X---X--|
A-----------------------------------------------------------------|
E-----------------------------------------------------------------|

Repeat:2 times


Solo:

E--11^12^14-11^12^14-11^12^14-11^12^14^11----------|
B-----------------------------------------12-12-12-|X on all on this row
G--------------------------------------------------|
D--------------------------------------------------|
A--------------------------------------------------|
E--------------------------------------------------|
	repeat 8x


E------------------------------------------------------|
B------------------------------------------------------|
G---11---11---11---11---11--------6----6----6----6---9-|
D--9----9----9----9----9---9-----9----9----9----9---9--|
A------------------------------------------------------|
E------------------------------------------------------|


E----14---14---14---14---14-----9----9----9----9----9--|
B--12---12---12---12---12-----12---12---12---12---12---|
G------------------------------------------------------|
D------------------------------------------------------|
A------------------------------------------------------|
E------------------------------------------------------|


Verse:

E--------0-----------------0---------|
B------------------------------0-----|
G------8-----8-----------8-------8---|
D----9---------9-------7-------------|
A------------------------------------|
E--7-----------------5---------------|

Repeat:3 times



Ref:

E-----------------------------------------------------------------|
B--12--12--12--12--12--12--12--12--12--12--12--12--12--12--X---X--|
G--11--11--11--11--11--11--9---9---11--11--9---9---11--11--X---X--|
D--9---9---9---9---9---9---9---9---9---9---9---9---9---9---X---X--|
A-----------------------------------------------------------------|
E-----------------------------------------------------------------|


E-----------------------------------------------------------------|
B--10--10--10--10--10--10--9---9--10--10---9---9--10--10---X---X--|
G--9---9---9---9---9---9---9---9---9---9---9---9---9---9---X---X--|
D--9---9---9---9---9---9---9---9---9---9---9---9---9---9---X---X--|
A-----------------------------------------------------------------|
E-----------------------------------------------------------------|

Repeat:4 times


Outro:

E------------------------------------------------------|
B------------------------------------------------------|
G---11---11---11---11---11--------6----6----6----6---9-|
D--9----9----9----9----9---9-----9----9----9----9---9--|
A------------------------------------------------------|
E------------------------------------------------------|


E----14---14---14---14---14-----9----9----9----9----9--|
B--12---12---12---12---12-----12---12---12---12---12---|
G------------------------------------------------------|
D------------------------------------------------------|
A------------------------------------------------------|
E------------------------------------------------------|
Tap to rate this tab
 
# A B C D E F G H I J K L M N O P Q R S T U V W X Y Z